Boy Sets FireRookie Текст, аккорды

0 Голосов
So, it's my first tab... the solo is missing...

when you hear the song you know what i mean..


E A D G B e

Intro

1 Guitar

e-------------------------------------------------------------------
B-------------------------------------------------------------------
G-------------------------------------------------------------------
D-7--------77777777--55555555--1010101010101010--1212121212121212---
A-7--------55555555--33333333-- 8 8 8 8 8 8 8 8--1010101010101010---
E-7--------55555555--33333333-- 8 8 8 8 8 8 8 8--1010101010101010---

2 Guitar play this 5 times

e----------------------------------------------------------------
B----------------------------------------------------------------
G--------10-9-12-9-10--10-9-12-9-10--10-9-12-9-10--10-9-12-9-10--
D----------------------------------------------------------------
A----------------------------------------------------------------
E----------------------------------------------------------------

1+2 Guitar
Verse

e-------------------------------------------------------------------------------
B-------------------------------------------------------------------------------
G--777-/10-/5---7-7-77-7-7-77--5-5-55-5-5-55--10-10-1010-10-10-1010--12-12-1212-
D--555-/8 -/3---5-5-55-5-5-55--5-5-55-5-5-55-- 8- 8- 8 8- 8- 8- 8 8--10-10-1010-
A--555-/8 -/3---5-5-55-5-5-55--3-3-33-3-3-33-- 8- 8- 8 8- 8- 8- 8 8--10-10-1010-
E--555-/8 -/3---5-5-55-5-5-55--3-3-33-3-3-33-- 8- 8- 8 8- 8- 8- 8 8--10-10-1010-


e-----------------------
B-----------------------
G--12-12-1212-----------
D--10-10-1010-----------
A--10-10-1010-----------
E--10-10-1010-----------

e-------------------------------------------------------------------------
B-------------------------------------------------------------------------
G---77777777--55555555--1010101010101010--1212121212121212----------------
D---55555555--33333333-- 8 8 8 8 8 8 8 8--1010101010101010----------------
A---55555555--33333333-- 8 8 8 8 8 8 8 8--1010101010101010----------------
E---55555555--33333333-- 8 8 8 8 8 8 8 8--1010101010101010----------------


e-------------------------------------------------------------------------
B-------------------------------------------------------------------------
G---77777777--55555555--1010101010101010--1212121212121212----------------
D---55555555--33333333-- 8 8 8 8 8 8 8 8--1010101010101010----------------
A---55555555--33333333-- 8 8 8 8 8 8 8 8--1010101010101010----------------
E---55555555--33333333-- 8 8 8 8 8 8 8 8--1010101010101010----------------
(palmute )( palmute) ( palmute )( palmute )


e-------------------------------------------------------------------------
B-------------------------------------------------------------------------
G---77777777--55555555--1010101010101010--1212121212121212----------------
D---55555555--33333333-- 8 8 8 8 8 8 8 8--1010101010101010----------------
A---55555555--33333333-- 8 8 8 8 8 8 8 8--1010101010101010----------------
E---55555555--33333333-- 8 8 8 8 8 8 8 8--1010101010101010----------------
(palmute )( palmute) ( palmute )( palmute )



Chorus
1+2 Guitar

e-----------------------------------------------------------------------
B-----------------------------------------------------------------------
G-----------------------------------------------------------------------
D---77777777--55555555--1010101010101010--1212121212121212--------------
A---55555555--33333333-- 8 8 8 8 8 8 8 8--1010101010101010--------------
E---55555555--33333333-- 8 8 8 8 8 8 8 8--1010101010101010--------------


e-----------------------------------------------------------------------
B-----------------------------------------------------------------------
G-----------------------------------------------------------------------
D---77777777--55555555--1010101010101010--1212121212121212--------------
A---55555555--33333333-- 8 8 8 8 8 8 8 8--1010101010101010--------------
E---55555555--33333333-- 8 8 8 8 8 8 8 8--1010101010101010--------------

Verse
1 guitar

e------------------------------------------------------------------------
B------------------------------------------------------------------------
G------------------------------------------------------------------------
D---------- -7--------- -5-- -------------- -10---------------- -12------
A---------- -5--------- -3-- -------------- -8---------------- -10------
E---5555555 -5--3333333 -3-- 8 8 8 8 8 8 8 -8--10101010101010 -10------
( pm ) ( pm ) ( pm ) ( pm )


e------------------------------------------------------------------------
B------------------------------------------------------------------------
G------------------------------------------------------------------------
D---------- -7--------- -5-- -------------- -10---------------- -12------
A---------- -5--------- -3-- -------------- -8---------------- -10------
E---5555555 -5--3333333 -3-- 8 8 8 8 8 8 8 -8--10101010101010 -10------
( pm ) ( pm ) ( pm ) ( pm )


2 Guitar

e-----------------------------------------------------------------------
B-----------------------------------------------------------------------
G---------------10-9-12-9-10--10-9-12-9-10--10-9-12-9-10--10-9-12-9-10--
D-----------------------------------------------------------------------
A-----------------------------------------------------------------------
E-----------------------------------------------------------------------


e-----------------------------------------------------------------------
B-----------------------------------------------------------------------
G---------------10-9-12-9-10--10-9-12-9-10--10-9-12-9-10--10-9-12-9-10--
D-----------------------------------------------------------------------
A-----------------------------------------------------------------------
E-----------------------------------------------------------------------

solo??

Chorus
1+2 Guitar

e-----------------------------------------------------------------------
B-----------------------------------------------------------------------
G-----------------------------------------------------------------------
D---77777777--55555555--1010101010101010--1212121212121212--------------
A---55555555--33333333-- 8 8 8 8 8 8 8 8--1010101010101010--------------
E---55555555--33333333-- 8 8 8 8 8 8 8 8--1010101010101010--------------


e-----------------------------------------------------------------------
B-----------------------------------------------------------------------
G-----------------------------------------------------------------------
D---77777777--55555555--1010101010101010--1212121212121212--------------
A---55555555--33333333-- 8 8 8 8 8 8 8 8--1010101010101010--------------
E---55555555--33333333-- 8 8 8 8 8 8 8 8--1010101010101010--------------



2 Guitar

e-----------------------------------------------------------------------
B-----------------------------------------------------------------------
G---------------10-9-12-9-10--10-9-12-9-10--10-9-12-9-10--10-9-12-9-10--
D-----------------------------------------------------------------------
A-----------------------------------------------------------------------
E-----------------------------------------------------------------------


e-----------------------------------------------------------------------
B-----------------------------------------------------------------------
G---------------10-9-12-9-10--10-9-12-9-10--10-9-12-9-10--10-9-12-9-10--
D-----------------------------------------------------------------------
A-----------------------------------------------------------------------
E-----------------------------------------------------------------------

Outro

1+2 Guitar

e----------------
B----------------
G----------------
D--777-/10-/5----
A--555-/8 -/3----
E--555-/8 -/3----
Другие песни: