Boy Sets FireMy Life In The Knife Trade Текст, аккорды

0 Голосов
#----------------------------------PLEASE NOTE--------------------------------#

#This file is the author's own work and represents their interpretation of the#
#song. You may only use this file for private study, scholarship, or research.#
#-----------------------------------------------------------------------------#
#-- File created with Instab - http://www.pconline.com/~smcarey/instab.html --#
#-----------------------------------------------------------------------------#

Author/Artist: Boy sets Fire
Title: My Life in the Knife Trade
Transcribed by: Mad Max
Email: MadMaxZiegler@aol.com

I didn't know how to name the Chords, so I
named them just C#1, C#2, ect.

Hope you enjoy it!

-3------3-----||-----3-----3-----|-----7-----7-----|---------0-----||---------
---0------0---||---0-----0-----0-|---5-----5-----5-|-----3-----3---||---------
-----2------2-||-----------------|-----------------|---0---0-----0-||---------
--------------||-2-----2-----2---|-5-----5-----5---|---------------||---------
--------------||-----------------|-----------------|-3-------------||---------
--------------||-----------------|-----------------|---------------||---------
repeat 4 times (pause)

------------------------------|------------------------------|----------------
------------------------------|------------------------------|----------------
------------------------------|------------------------------|----------------
------------------------------|------------------------------|----------------
-2-2-2--2-2-2--2-2-2-2--2-2-2-|-5-5-5--5-5-5--5-5-5-5--5-5-5-|----------------
-0-0-0--0-0-0--0-0-0-0--0-0-0-|-3-3-3--3-3-3--3-3-3-3--3-3-3-|----------------
play 4 times (disortion)

------------------------------|------------------------------||---------------
------------------------------|------------------------------||---------------
------------------------------|------------------------------||---------------
-5-5-5--5-5-5--5-5-5-5--5-5-5-|-5-5-5--5-5-5--5-5-5-5--5-5-5-||---------------
-3-3-3--3-3-3--3-3-3-3--3-3-3-|-3-3-3--3-3-3--3-3-3-3--3-3-3-||---------------
------------------------------|------------------------------||---------------
bridge:

---|-5-|---------|------------------------------------------------------------
-8-|---|-5-7-7/8-|------------------------------------------------------------
---|-5-|---------|------------------------------------------------------------
-5-|-7-|-2-4-4/5-|------------------------------------------------------------
---|---|---------|------------------------------------------------------------
---|---|---------|------------------------------------------------------------


REFRAIN:
Chords: C#1: x79x7x C#3: x35x5x
C#2: x57x7x C#4: 3x04xx
C#1 C#2 C#3 C#4
Trate my life for a barrel of gold

C#1 C#2 C#3 C#4
Find someone else before I get too old

C#1 C#2 C#3 C#4
If I live my life for aesthetic gain

C#1 C#2 C#3 C#4
Will you repay me with all your shame
Другие песни: