Boy Hits CarIm A Cloud Текст

0 Голосов
Boy Hits Car

I’m a Cloud

This is a petty cool song that i've found and i've tried to put it together the best i could...E-mail me if theres any problems!!!!!

This is in Dropped D Tuning (D-A-D-G-B-E)

Intro:
e:-------------------------
B:-------------------------
G:-------------------------
D:-----------5h7----------- x8
A:------3----------3----3--
D:--0-0---00-----0---00----
p.m---- -- --- --


Intro continued: (delay)
e:--2-----5-----0--------
B:--3-----3-----3-----3--
G:--2-----2-----2-----2--
D:--0-----0-----0-----0--
A:-----------------------
D:-----------------------

Chorus/Main Riff:
e:----------------------------
B:----------8h10--------------
G:------5---7---------5----5--
D:--0-0-5-00--------0-5-00-5--
A:--0-0-3-00--------0-3-00-3--
D:--0-0---00--------0---00----

Verse:
e:-----------------------------------------------------------
B:-----------------------------------------------------------
G:-----------------------------------------------------------
D:--0-0---------0-0---------------------------------
A:--0-0---------0-0---------------------------------
D:--0-0---------0-0------------------------

continued
e:-----------------------------------------------
B:-----------------------------------------------
G:-----------------------------------------------
D:--0-0-xxxxxxx-0-0-xxxxxxx-0-0---0---0-xxxxxxx--
A:--0-0-xxxxxxx-0-0-xxxxxxx-0-0---0---0-xxxxxxx--
D:--0-0-xxxxxxx-0-0-xxxxxxx-0-0---0---0-xxxxxxx--

Pre-Chorus:
e:----2----3----2----3----2h3--
B:-----------------------------
G:------22---22---22---22------
D:--0--------------------------
A:--0--------------------------
D:--0--------------------------

2nd Pre-Chorus:
e:----------------------------2h3--
B:---------------------------------
G:---------------------------------
D:--0------------------------------
A:--0-2p0---3p0---2p0---3p0--------
D:--0-----0-----0-----0-----0------
===========

Name: Steven Carey

Tabs: Song: I Am A Cloud
Artist: Boy Hits Car
Album: Boy Hits Car
Tabbed by: Steven Carey (aakornnut999@excite.com)

Dropped D Tuning

Intro:
e:-------------------------
B:-------------------------
G:-------------------------
D:-----------5h7----------- x8
A:------3----------3----3--
D:--0-0---00-----0---00----
mute / mute/

Intro continued: (delay)
e:--2-----5p3---0--------
B:--3-----3-----3-----3--
G:--2-----2-----2-----2--
D:--0-----0-----0-----0--
A:-----------------------
D:-----------------------

Chorus/Main Riff:
e:-----------3-h-5------------
B:----------(3)h(5)-----------
G:------5-------------5----5--
D:--0-0-5-00--------0-5-00-5--
A:--0-0-3-00--------0-3-00-3--
D:--0-0---00--------0---00----

Verse:
e:-----------------------------------------
B:-----------------------------------------
G:-----------------------------------------
D:--0-0---------0-0------------------------
A:--0-0---------0-0------------------------
D:--0-0---------0-0------------------------

continued
e:-----------------------------------------------
B:-----------------------------------------------
G:-----------------------------------------------
D:--0-0-xxxxxxx-0-0-xxxxxxx-0-0---0---0-xxxxxxx--
A:--0-0-xxxxxxx-0-0-xxxxxxx-0-0---0---0-xxxxxxx--
D:--0-0-xxxxxxx-0-0-xxxxxxx-0-0---0---0-xxxxxxx--

Pre-Chorus:
e:----2----3----2----3----2h3--
B:-----------------------------
G:------22---22---22---22------
D:--0--------------------------
A:--0--------------------------
D:--0--------------------------

2nd Pre-Chorus:
e:----------------------------2h3--
B:---------------------------------
G:---------------------------------
D:--0------------------------------
A:--0-2p0---3p0---2p0---3p0--------
D:--0-----0-----0-----0-----0------

Thats it!
Другие песни: