Boxcar RacerThe End With You Текст

0 Голосов
Boxcar Racer-The End With You

Tabbed by: Pat cook
Email: Red_in_my_head@mail2platinum.com

Standard Tuning (low to high) EADGBE
PM-PALM MUTE
/-SLIDE
RIFF1
E[--------------]
B[--------------]
G[--------------]
D[--------------]
A[-66666666-----]REPEAT 4X
E[-44444444-----]
RIFF2
E[------------------------[--------------------]
B[------------------------[--------------------]
G[------------------------[--------------------]
D[--------------------6---[--------------66----]
A[-4444-77777777--6/7-4---[-4444-77--777-44-77-]REPEAT 4X
E[-2220-55555555--4/5-----[-2220-55--555----55-]
PM =========
RIFF3
E[----------------------]
B[----------------------]
G[----------------------]
D[--------------66------]REPEAT 8X
A[-44444444-777-44-77---]
E[-22222222-555----55---]
PM=====================
RIFF4
E[------------------------]
B[------------------------]REPEAT2x
G[------------------------](I am not 100% sure on this bit at all
D[------------------66----]so If you have any corrections send em
A[-77777777-777-445-44----]to me or post them on here :P)
E[-55555555-444-222-------]


RIFF5
E[--------------------------------]
B[--------------------------------]
G[----------666-7-4---------------]
D[----------666-7-4---------------] (Digital Delay used)
A[----------444/52---------------]
E[--222-0-5-----------------------]

ok well thats it im pretty sure this is right accept for riff4
but as I said if you have anything on that tell us.
Другие песни: