Bowie DavidSorrow Текст

0 Голосов
G 
E---------------------------------|
B---------------------------------|
G---------------------------------|
D--0--4--5--5p4--0--4--5--5p4-----|
A---------------------------------|
E---------------------------------|

G
With your long blonde hair and your eyes of blue
C G
The only thing I ever got from you was sorrow, sorrow
G
You acted funny trying to spend my money
C G
You're out there playing your high class games of sorrow, sorrow

G
You never do what you know you oughta
C G
Something tells me you're a Devil's daughter sorrow, sorrow
D C G
Ahhhh, oo, oooo

Solo:
G
E---------------------------------------------------|
B-12--10--8-------------8--12--10--8-------------8--|
G------------9--7-7-5-4---------------9--7-7-5-4----|
D---------------------------------------------------|
A---------------------------------------------------|
E---------------------------------------------------|

C G
E-12p10-7-8p7----12h15-12-10--8----------------------------|
B-------------8------------------12--10--8-8-------------8-|
G--------------------------------------------9--7-7-5-4----|
D----------------------------------------------------------|
A----------------------------------------------------------|
E----------------------------------------------------------|

G
I tried to find her 'Cause I can't resist her (I tried to find her)
C G
I never knew just how much I missed her sorrow, sorrow
G
With your long blonde hair and your eyes of blue
C G
The only thing I ever got from you was sorrow, sorrow
D
Oh-oh-oh-oh
C G
Oh-oh-oh, ho-ho
F
With your long blonde hair
G
I couldn't sleep last night
F
With your long blonde hair
F
Hu hu hu
Hu hu hu yeah
Hu hu hu
Hu hu hu yeah
Hu hu hu
Hu hu hu yeah
Другие песни: