Bowie DavidLabyrinth Текст

0 Голосов
David Bowie - Labyrinth

Tabbed By: Myke
EMail: A_Violet_Fluid@hotmail.com


Standard Tuning

Intro:

|--------------------------------------------|
|--------5----------7----------5----------7--|
|------4----------5----------4----------5----|
|----7----------7----------7----------7------|
|--0----------0----------0----------0--------|
|--------------------------------------------|

Lead:

[A] [A]
|--10--8----7--7----8--------7--5--7----8--|
|------------------------------------------|
|------------------------------------------|
|------------------------------------------|
|------------------------------------------|
|------------------------------------------|

[F#m]
|--7--5--4----4--5--------4--2--4--5--|
|-------------------------------------|
|-------------------------------------|
|-------------------------------------|
|-------------------------------------|
|-------------------------------------|
[Dm] [Dm]
|------5--2--5----/8--7----5--4--5--0--|
|--------------------------------------|
|--------------------------------------|
|--------------------------------------|
|--------------------------------------|
|--------------------------------------|

Chords:

A F#m D Dm
|--0----2----2----1--|
|--2----2----3----3--|
|--2----2----2----2--|
|--2----4----0----0--|
|--0----4------------|
|--------------------|

A_Violet_Fluid@hotmail.com
2OO2
Другие песни: