Bouncing SoulsNo Comply Текст

0 Голосов
This is my very first tab. I hope it's right.


E A H H A E A E A E H H E
e------------------------------------------------------
a------------------------------------------------------
d--9-------------------------9-----9-----9--------9----
g--9--7--9--9-------8x----7--9--7--9--7--9--9--9--9----
h--7--7--9--9-------------7--7--7--7--7--7--9--9--7----
e-----5--7--7-------------5-----5-----5-----7--7-------

e------------------------------------------------------
a------------------------------------------------------
d--9------------till-the end of the song--------------
g--9--7--9--9------------------------------------------
h--7--7--9--9------------------------------------------
e-----5--7--7------------------------------------------

End with E
Другие песни: