Bouncing SoulsFight To Live Текст

0 Голосов
Intro/Chorus:

----------------------------------------------------------
----------------------------------------------------------
----------------------------------------------------------
-9-9---7-7-7---9-9-9-9---9-9------------------------------
-9-9---7-7-7---7-7-7-7---7-7------------------------------
-7-7---5-5-5---7-7-7-7---7-7------------------------------

----------------------------------------------------------
----------------------------------------------------------
----------------------------------------------------------
-9--------------------------------------------------------
-9--------------------------------------------------------
-7--------------------------------------------------------
Let ring and ring and ring

Verse:
----------------------------------------------
----------------------------------------------
----------------------------------------------
-9---7---9------------------------------------
-9---7---7------------------------------------
-7---5---7------------------------------------
* * *
You figure out the timing
Do the same thing only open for the pre-chorus

Thats it, pretty easy the same 3 chords throughout the song, if i missed anything.
Другие песни: