Бони НемYouэre My Heart Youэre My Soul Текст

0 Голосов
Tuning D 

Intro:
Gtr 1
E |---------------------------------------------------------|
B |---------------------------------------------------------|
G |---------------------------------------------------------|
D |---------------------------------------------------------|
A |----7-7--5-(5)---5-5--3-(3)----7-7--5-(5)-----5-5--3-(3)-|
E |----5-5--3-(3)---3-3—-1—(1)----5-5--3-(3)-----3-3—-1—(1)-|
| |
| |
Gtr 2 |
E |-----------------------------------------------------|
B |--10-10-8~-------8-8—6~-------10-10-8-(8)-----8-8-6~-|
G |---------------------------------------⁄/⁄/⁄/--------|
D |-----------------------------------------------------|
A |-----------------------------------------------------|
E |-----------------------------------------------------|

Gtr 1 and Gtr 2
E |-------------------------------------------------------------------|
B |-------------------------------------------------------------------|
G |-------------------------------------------------------------------|
D |-------------------------------------------------------------------|
A |-----7-7--5--------------------------5-5--3------------------------|
E |-----5-5--3--3-3-3-3-3-3-3-3-3-3-3---3-3--1--1-1-1-1-1-1-1-1-1-1-1-|
p.m. . . . . . . . . . . . . . . . . . . . . . .

Gtr 1 and Gtr 2
E |-------------------------------------------------------------------------|
B |-------------------------------------------------------------------------|
G |-------------------------------------------------------------------------|
D |-------------------------------------------------------------------------|
A |-----7-7--5--------------------------5-5--3----------------------------7-|
E |-----5-5--3--3-3-3-3-3-3-3-3-3-3-3---3-3--1--1-1-1-1-1-1-1-1-1-1-1-----5-|
p.m. . . . . . . . . . . . . . . . . . . . . . .

Verse 1:
Gtr 1 (clean electric)

Am G Fill 1
Deep in my heart, there’s A fire, burning heart
Am G Fill 1
Deep in my heart, there’s desire, for start
Dm
I’m dying in an emotion
Am
It's my world in fantasy
? ? G Fill 2
I’m livin’ in my, livin’ in my dreams

fill 1:
Gtr 2 1/2
E |-------/-------|
B |------/--------|
G |-----12r-(12)~-|
D |---------------|
A |---------------|
E |---------------|

fill 2:
Gtr 2 1/2
E |-------/--------|
B |------/---------|
G |-----12r-(12)~⁄-|
D |----------------|
A |----------------|
E |----------------|

Fill 3:
Gtr 3
E |---------|
B |---------|
G |--5--7p9-|
D |---------|
A |---------|
E |---------|

Pre-chorus 1:
Gtr 1 (clean electric)
____ You’re my heart ...
E |---0--0--0--0--0--1--1--1--1--1--3--3--3--3--3--0—-0--0--0--0-|
B |---1--1--1--1--1--3--3--3--3--3--3--3--3--3--3--1--1--1--1--1-|
G |---2--2--2--2--2--2--2--2--2--2--0--0--0--0--0--2--2--2--2--2-|
D |---2--2--2--2--2--0--0--0--0--0--0--0--0--0--0--2--2--2--2--2-|
A |---0--0--0--0--0--0--0--0--0--0--2--2--2--2--2--0--0--0--0--0-|
E |---0--0--0--0--0-----------------3--3--3--3--3--0--0--0--0--0-|

all chord hit from down to up...

Gtr 1 (clean electric)
____ You’re my heart ...
E |---0--0--0--0--0--1--1--1--1--1--3--3--3--3--3--0—-0--0--0--0-|
B |---1--1--1--1--1--3--3--3--3--3--0--0--0--0--0--1--1--1--1--1-|
G |---2--2--2--2--2--2--2--2--2--2--0--0--0--0--0--2--2--2--2--2-|
D |---2--2--2--2--2--0--0--0--0--0--0--0--0--0--0--2--2--2--2--2-|
A |---0--0--0--0--0--0--0--0--0--0--2--2--2--2--2--0--0--0--0--0-|
E |---0--0--0--0--0-----------------3--3--3--3--3--0--0--0--0--0-|

Chorus:
Gtr 1 and Gtr 2
E |-----------------------------------------------------------------------|
B |-----------------------------------------------------------------------|
G |-----------------------------------------------------------------------|
D |---------------------7-----7-----7-------------------------------------|
A |----7-----7-----7----5-5-5-5-5-5-5-5--5-----5-----5----7-----7-----7---|
E |----5-5-5-5-5-5-5-5-------------------3-3-3-3-3-3-3-3--5-5-5-5-5-5-5-5-|
p.m. . . . . . . . . . . . . . . . . . . . .

Gtr 1 and Gtr 2
E |-----------------------------------------------------------------------|
B |-----------------------------------------------------------------------|
G |-----------------------------------------------------------------------|
D |---------------------7-----7-----7-------------------------------------|
A |----7-----7-----7----5-5-5-5-5-5-5-5--5-----5-----5----7-----7---------|
E |----5-5-5-5-5-5-5-5-------------------3-3-3-3-3-3-3-3--5-5-5-5-5-5-5-5-|
p.m. . . . . . . . . . . . . . . . . . . . . .

Bridge:
Gtr 1 and Gtr 2
E |-------------------------------------------------------------|
B |-------------------------------------------------------------|
G |-------------------------------------------------------------|
D |-------------------------------------------------------------|
A |----7-7--5-(5)---5-5--3-(3)----7-7--5-(5)---5-5--3-(3)----⁄x-|
E |----5-5--3-(3)---3-3—-1—(1)----5-5--3-(3)---3-3—-1—(1)----⁄x-|

Verse 2:
Gtr 1 and Gtr 2 x2
E |----------------------------------------------------|
B |*-------------------------------------------------*-|
G |----------------------------------------------------|
D |----------------------------------------------------|
A |*-------------------------------------------------*-|
E |----555---5555--555--5555--000--0000--000—0000------|
p.m. ... .... ... .... ... .... ... ....

Gtr 1 and Gtr 2
E |----------------------------------------------------------------------------|
B |----------------------------------------------------------------------------|
G |----------------------------------------------------------------------------|
D |----------------------------------------------------------------7-----------|
A |------------------------------------------------------------7---5---5----⁄x-|
E |-555-5555-555-5555-555-5555-333-3333-333-3333--333--3333----5-------3----⁄x-|

Pre-chorus 2:
Gtr 1 and Gtr 2 x2
E |---------------------------------------------------------|
B |*------------------------------------------------------*-|
G |---------------------------------------------------------|
D |----------------7--7--7--7-------------------------------|
A |*---7—-7--7—-7--5--5--5--5---5--5--5--5---7--7--7—-7⁄--*-|
E |----5-—5--5--5---------------3—-3—-3-—3---5--5--5—-5⁄----|

At 2nd time - Slide...

Chorus
Solo Rhythm
Solo
Pre-chorus 2
Chorus
Другие песни: