Бони НемВ мире животных Текст

0 Голосов
Обозначения:


/
/ - бенд, - возврат, full - на тон, 1/2 - на полтона,

~ - вибрато, / - слайды, h - хаммер, р - пул, pm - глушение правой рукой.

Над табулатурой проставлены доли.

intro

1 2 3 4 5 6 1 2 3 4 5 6 1 2 3 4 5 6 1 2 3 4 5 6
clean gtr
G|-----7-7-7-7-----7-7-7-7-----------------7-7-7-7-|
| * * * * * * * * * * * * pm
|bass
A--3-----------3-1---1-0---1-----------|
E|-3-----------------------------------------------|


1 2 3 4 5 6 1 2 3 4 5 6 1 2 3 4 5 6
clean gtr
G|-----7-7-7-7-----7-7-7-7--------------|
| * * * * * * * * pm
|bass
A---3----------5-3---6-5----|
E|-3------------------------------------|


1 2 3 4 5 6 1 2 3 4 5 6 1 2 3 4 5 6 1 2 3 4 5 6
e--------------------------------------|
B|-------3-----------3-----------3-----------3-----|
G|---------3-----------3-----------3-----------3---|
D5-----------5-----------5-----------5-|
A|-5---5-------5---5-------5---5-------5---5-------|
E--------------------------------------|





solo1
1 2 3 4 5 6 1 2 3 4 5 6 1 2 3 4 5 6 1 2 3 4 5 6
clean gtr
B--------------------------------------------------------------|
/1/2
G|----7--5-----5--7--7-----/-----------------------7-----------------------|

D|----------8--------------------8--8-----7--7-----------------------------|

A--------------------------------------------------------------|

E--------------------------------------------------------------|


1 2 3 4 5 6 1 2 3 4 5 6 1 2 3 4 5 6 1 2 3 4 5 6
B--------------------------------------------------------------|

G--------------------------------------------------------------|
/full
D|----8p 7-----7--8--8-----/-----------------------------------------------|

A|----------10-------------------10-10----9--9-----------------------------|

E--------------------------------------10----------------------|


1 2 3 4 5 6 1 2 3 4 5 6 1 2 3 4 5 6 1 2 3 4 5 6

B--------------------6--6---------------------------------------|
/1/2 /1/2
G|----7--5-----5--7--7-----/--------------7/-------------------------------|

D|----------8---------------------------------------------------------------|

A---------------------------------------------------------------|

E---------------------------------------------------------------|


1 2 3 4 5 6 1 2 3 4 5 6 1 2 3 4 5 6 1 2 3 4 5 6
B---------------------------------------------------------------|

G--------------------75----------------------------------------|
/full
D|----8p 7-----7--8--8-----/---------8-----8--7-----5-----------------------|

A|----------10--------------------------------------------------------------|

E---------------------------------------------------------------|







solo2(w/fig1)
1 2 3 4 5 6 1 2 3 4 5 6 1 2 3 4 5 6 1 2 3 4 5 6
clean gtr
B--------------------------------------------------------------|
/1/2
G|----7--5-----5--7--7-----/-----------------------------------------------|

D|----------8--------------------8--8-----7--7-----------------------------|

A--------------------------------------------------------------|

E--------------------------------------------------------------|


1 2 3 4 5 6 1 2 3 4 5 6 1 2 3 4 5 6 1 2 3 4 5 6
B--------------------------------------------------------------|

G--------------------------------------------------------------|
/full
D|----8p 7-----7--8--8-----/-----------------------------------------------|

A|----------10-------------------10-10----9--9-----------------------------|

E--------------------------------------------------------------|


1 2 3 4 5 6 1 2 3 4 5 6 1 2 3 4 5 6 1 2 3 4 5 6
/1/2
E--------------------8--8-----6/------------------------------|

B--------------------------------------------------------------|
/1/2
G|----7--5-----5--7--7-----/-----------------------------------------------|

D|----------8--------------------------------------------------------------|

A-------------------------------------------------------------|

E--------------------------------------------------------------|


1 2 3 4 5 6 1 2 3 4 5 6 1 2 3 4 5 6 1 2 3 4 5 6
B--------------------8------------------------------------------|

G-----------------------11----11-10----8------------------------|
/full
D|----8p 7-----7--8--8-----/------------------------------------------------|

A|----------10--------------------------------------------------------------|

E---------------------------------------------------------------|










solo3
1 2 3 4 5 6 1 2 3 4 5 6 1 2 3 4 5 6 1 2 3 4 5 6
dist gtr&wah
B--------------------------------------------------------------|
/1/2
G|----7--5-----5--7--7-----/-----------------------7~----------------------|

D|----------8--------------------8--8-----7--7-----------------------------|

A--------------------------------------------------------------|

E--------------------------------------------------------------|


1 2 3 4 5 6 1 2 3 4 5 6 1 2 3 4 5 6 1 2 3 4 5 6
e--------10 12----10-108--------------------------------------|

B-------------------------------11-10----8------------------------|

G-----------------------------------------------------------------|

D|----8p 7-----7--8-----------------------------------------------------------|

A|----------10----------------------------------------------------------------|

E-----------------------------------------------------------------|


1 2 3 4 5 6 1 2 3 4 5 6 1 2 3 4 5 6 1 2 3 4 5 6

e-----------------------13-13-----------------------------------|
/1/2
B|----15-13----13-15-15----/-----15----------13 / 15~----------------------|

G|----------15--------------------------------------------------------------|

D---------------------------------------------------------------|

A---------------------------------------------------------------|


1 2 3 4 5 6 1 2 3 4 5 6 1 2 3 4 5 6 1 2 3 4 5 6
e--------------------------------14----15~----------------------|

B-----------------------15-15-----------------------------------|
/full
G|----15p14----14-15-15----/-----15-----------------------------------------|

A|----------17--------------------------------------------------------------|

E---------------------------------------------------------------|




outro

1 2 3 4 5 6 1 2 3 4 5 6 1 2 3 4 5 6 1 2 3 4 5 6
dist gtr
e--------------------------------------|
B--5-----------5-3---3-2---3-----------|
G|-5-----------5-----------5-3---3-2---3-----------|
A|-5-----------3-----------3-1---1-0---1-----------|
E|-3-----------------------------------------------|

1 2 3 4 5 6 1 2 3 4 5 6 1 2 3 4 5 6
e--------------------------|
B--5-----------7-5---8-7---|
G|-5-----------5-----------7-5---8-7---|
A|-5-----------3-----------5-3---6-5---|
E|-3-----------------------------------|


1 2 3 4 5 6
dist gtr
e--|
B--|
G|-5-----------|
A|-5-----------|
E|-3-----------|
|
|clean gtr
e--------------------------------------|
B|-------3-----------3-----------3-----------3-----|
G|---------3-----------3-----------3-----------3---|
D5-----------5-----------5-----------5-|
A|-5---5-------5---5-------5---5-------5---5-------|
E--------------------------------------|
Другие песни: