Bon JoviLivin On A Prayer Текст

0 Голосов
Intro: Emsus2 
----------------------------------------------------|
----------------------------------------------------|
----------------------------------------------------|
--------------5-7-7/9/7-5-7-7--5h7p5----------------|
----------5-7------------------------5-7-(7)-(7)----|
----5h7p5-------------------------------------------|

----12*---------------------------------------------------------------------------|
----12*--15b17--------------------------------------------------------------------|
-----------------14-12-14-14h16p14-12-14-14h16p14-12-14----12h14p12---------------|
----------------------------------------------------------------------------------|
-----------------------------------------------------------------------5h7p5p0----|
----------------------------------------------------------------------------------|

Riff 1:
----------------------------------|
----------------------------------|
----------------------------------|
--------0--0h2p0------------------|
----0-2----------2--0h2p0---------|
--------------------------3--0----|

Emsus2
Tommy used to work on the docks
Emsus2
The union's strike
Csus4 Dsus4 Emsus2 (Riff 1)
He's down on his look It's tough, so tough
Emsus2
Gina works the dinner all day
Emsus2
Workin'for her man, she brings home her pay
Csus4 Dsus4 Emsus2 (Riff 1)
For love for love...

C D Em
She says We've got to hold on to what we've got
C D Em
It doesn't make a difference if we'll make it or not
C D Em
We've got each other, and that's a lot
C D
For love We'll give it a shot

Em C D
Ohh ohh we're half way there
G Cadd9 D
Ohh ohh livin'on a prayer
Em C D
Take my hand, we'll make it I swear
G Cadd9 D
Ohh ohh livin'on a prayer

Riff 2: Emsus2
-------------------------------------------------|
----7-8-7h8p7------------------------------------|
--------------9---7------------------------------|
----------------9--------0h2p0h2p0h2p0h2p0...----|
-------------------------------------------------|
--------------------0----------------------------|

Riff 3
--------------------------------------12...-14...-15...-----------------------------------|
---------------------------------------------------------15b17-17-12----------------------|
---------------------------------------------------------------------14-14b16-14-12-------|
------------5-7--7/9/7-5-7-7/9/7-5h7------------------------------------------------14----|
--------5-7-------------------------------------------------------------------------------|
----5-7-----------------------------------------------------------------------------------|

-----------------|
----------7h8----|
----7h9p7--------|
-----------------|
-----------------|
-----------------|

Emsus2
Tommy feels his six string hock
Emsus2
He's on his knees with what used
Emsus2 Csus4 (Riff 3) Dsus4 Emsus2
to make it look so tough so tough
Emsus2
Gina dreams of running away
Emsus2
When she cries in the night
Emsus2 Csus4 Dsus4 Emsus2 (Riff 1)
Tommy whispers Baby it's okay someday

C D Em
He said we've got to hold on to what we've got
C D Em
It doesn't make a difference if we'll make it or not
C D Em
We've got each other, and that's a lot
C D
For love... We'll give it a shot

Em C D
Ohh ohh we're half way there
G Cadd9 D
Ohh ohh livin'on a prayer
Em C D
Take my hand we'll make it I swear
G Cadd9 D
Ohh livin'on prayer
C
We're living on a prayer....

Solo: Emsus2 - Csus4 - Dsus4 - Emsus2 -
Emsus2 - C - D - Emsus2

Solo:
-----------------------------------------------------12----------------------------|
-----------------------------------------------------12--12-15b17--17p15-----------|
------------------------------------------------------x------------------16p14~----|
----0h2p0h2p0h2p0h2...--------------5-7-7/9/7-5-7~---------------------------------|
--------------------------------5-7------------------------------------------------|
-----------------------(0)--5-7----------------------------------------------------|

--------------------------------------------------12...-14...-15...--15b----|
----------------------------------------------------------------------------|
----12-14-14/16-12-14-12-14-14/16~--12--------------------------------------|
---------------------------------------14-12h14~----------------------------|
----------------------------------------------------------------------------|
----------------------------------------------------------------------------|

--------------------------------------------------------------------------------|
----15-17-15-17-15b17----17-15--------------------------------------------------|
-------------------------------16-14b16r14-12----12-12h14p12-------12-14-12~----|
----------------------------------------------14-------------12-14--------------|
--------------------------------------------------------------------------------|
--------------------------------------------------------------------------------|

-----------------------------------------------------------------------------|
-------------------------------------------------8-8/10--8p7-7/8-------------|
-----------------------------------------------9-------------------7-7h9~----|
------------5-7-7/9-5-7-7/9-5h7~------5-7-7/9--------------------------------|
--------5-7-----------------------5-7----------------------------------------|
----5-7----------------------------------------------------------------------|

C D Em
We've gotta hold on ready or not
C
You live fot the fight,
D
when it's all that you've got

Em C D
Would i straight walk we're half way there yeah
G Cadd9 D
Ohh ohh we're living on a prayer
Em C D
Take my hand, we'll make it I swear
G Cadd9 D
Ohh ohh we're living on a prayer
D
I say
Em C D
Ohhh ohhh We're half way,
G Cadd9 D
ohh livin on a prayer
Em C D
take my hand, we'll make it a swear
G Cadd9 D
ohh livin on a prayer

Outro: Em C D
G Cadd9 D
Em C D

----3-3-3-3--3-0--0---------|
----3-3-3-3--3-0---0--------|
----0-0-0-0--0-0----0-------|
----0-0-0-x--x-x-----2------|
----x-x-x-3--3-3------2-----|
----3-3-3--------------0----|
Другие песни: