Bon JoviFingerprints Текст

0 Голосов
Intro: Dm Gm C A A7 

Dm
I gave you my fingerprints
Gm
Left them all over you
C
Tangled up in your sheets
A A7
This heartache's the only proof
Dm
I gave you my fingerprints
Gm
Now just like you they're gone
C
The man invisible
A A7
I'll be him from now on

Bb
The last time that I saw them
F
They were running through your hair
C
You held one between your lips
A A7
And brought another there
Bb
The last time that I saw them
F
I haven't seen them since
C
No matter who or what I touch
A A7
I leave no evidence
Bb C Dm
I gave you my fingerprints

Dm
I said I'd give you everything
Gm
But who thought you'd take it all
C
Does a promise really break
A A7
If nobody sees it fall
Dm
A hard rain can't wash away
Gm
The taste of your memory
C
Don't know what I would do
A A7
If you should stop haunting me

Bb
The last time that I saw them
F
They were running through your hair
C
You held one between your lips
A A7
And brought another there
Bb
The last time that I saw them
F
Unbuttoning your dress
C
Those pretty pictures in my head
A A7
Are the only thing you left
Bb C Dm Gm C A A7 Dm Gm C A A7
I gave you my fingerprints

Solo tab:
e|--------------------------------------------------------------|
B|-5-6-8--5-6-8--5-6-8--5-6-8--7-8-10--7-8-10--7-8-10--11-10-8--|
G|--------------------------------------------------------------|
D|--------------------------------------------------------------|
A|--------------------------------------------------------------|
E|--------------------------------------------------------------|

e|--------------------------------------------------------------|
B|-3-5-6--3-5-6--3-5-6--3-5-6--5-7-8--5-7-8-8/10--8-6-5---------|
G|--------------------------------------------------------------|
D|--------------------------------------------------------------|
A|--------------------------------------------------------------|
E|--------------------------------------------------------------|

e|--------------------------------------------------------------|
B|-5-6-8--5-6-8--5-6-8--5-6-8--7-8-10--7-8-10--7-8-10--13-11-10-|
G|--------------------------------------------------------------|
D|--------------------------------------------------------------|
A|--------------------------------------------------------------|
E|--------------------------------------------------------------|

e|--------------------------------------------------------------|
B|-3-5-6--3-5-6--3-5-6--3-5-6--10--8--6--5---3~~----------------|
G|--------------------------------------------------------------|
D|--------------------------------------------------------------|
A|--------------------------------------------------------------|
E|--------------------------------------------------------------|

Gm
That shiny box I gave to you
F
Was all there was to me
C A A7
All it was to you was just a faded memory

Dm
I gave her my fingerprints
Gm
Guilty or innocent
C
I have to ask myself
A
Would I do it all again
A
Would I?

Bb
The last time that I saw them
F
They were running through your hair
C
You held one between your lips
A A7
And brought another there
Bb
The last time that I saw them
F
I haven't seen them since
C
No matter who or what I touch
A A7
I leave no evidence
Bb C Dm
I gave you my fingerprints

Outro: Gm C A A7
Dm Gm C A A7 }x3 Dm
Другие песни: