Bon JoviAlways (solo) Текст

0 Голосов
Solo:
|-----------------------------------|
|-----------------------------------|
|-----4h6-----4-6-------------------|
|-4/6-----4/6-----4/6-4/6p4/2-4p2---|
|---------------------------------2-|
|-----------------------------------|

|--------------------------------------------------------------|
|--------------------------------------------------------------|
|--------------------------------------------------------------|
|---------2-4fbp2-------2-4fb-2-------2-4fb-2---2-4-4fbp2-4~~--|
|-----2-4---------4-2-4---------4-2-4---------4----------------|
|-2/4----------------------------------------------------------|

|-13----12---7---7/12-12/7-7---------------7fb-|
|-14p12-129-9p7-7/12-12/7--9p7-75-7fbp5-7------|
|----------------------------------------------|
|----------------------------------------------|
|----------------------------------------------|
|----------------------------------------------|

|----------12-12----12------12----12-12-12-------------12-14fbp12-14-16hb-16----|
|-14-12-14-14-12----12-p-14-12----12-14-14-12----12-14-----------------------14-|
|----------------13------------13-------------13--------------------------------|
|-------------------------------------------------------------------------------|
|-------------------------------------------------------------------------------|
|-------------------------------------------------------------------------------|
Другие песни: