BombshellFigured Her Out Текст

0 Голосов
Bombshell Figured her out


by: Chris Stephens

Intro: Repeat 4 times

----------------------------------
----------------------------------
---4---4---4---4------------------
--4-4-4-4-4-4-4-4-----------------
-2--------------------------------
-----2---4---0--------------------

Chorus: Repeat 4 times also (Only Bass Plays)

------------------------------------------------
------------------------------------------------
------------------------------------------------
------------------------------------------------
-2-2-2-2(8xs)-4-4-4-4(8xs)------------7-7-7-7(8xs)
--------------------------4-4-4-4(8xs)----------

Prelude: Play right after the chorus from the bass
And also play this twice!

------------------------------------------------
------------------------------------------------
------------------------------------------------
-------------------------4----------------------
-6-------4-------2-------2----------------------
-4-(8xs)-2-(8xs)-0-(8xs)------------------------

(On the first time don't play the 4th note, let the third note just ring)

than play the intro again and than the chorus and prelude and that will be the end of the
song! @njoy--Chris
Другие песни: