Bolt ThrowerWorld Eater 9 Текст

0 Голосов
WORLD EATER '94 - Bolt Thrower - Rareache/Who Dares Wins

Version 1.0 - December 2000
Transcribed by Lalith Vipulananthan (lalithv@uk2.net)

Rhythm Guitar Transcribed on Bass
Tuning (Low - High): B E A D G B

Intro Play 5 times
|---------------------------------|
|---------------------------------|
|---------------------------------|
|-0-0-0-0-0-0-0-0-0-0-0-0-0-0-0-0-|
. . . . . . . . . . . . . . . .

A1 Play twice
|-----------------------------------------------------------------------|
|-----------------------------------------------------------------------|
|-7-8---8-10---10-12----8-10-8-8-10-8-7---------------------------------|
|-----0------0--------0-----------------0-0-0-0-0-0-0-0-0-0-0-0-0-0-0-0-|
. . . . . . . . . . . . . . . .

A2
|-----------------------------------------------------------------------------|
|-9-10---10-12---12-14---10-12-10-10-12-10-9~---------------------------------|
|-----------------------------------------------------------------------------|
|------0-------0-------0----------------------0-0-0-0-0-0-0-0-0-0-0-0-0-0-0-0-|
. . . . . . . . . . . . . . . .

A3
|---------------------------------------|
|---------------------------------------|
|-7-8---8-10---10-12----8-10-8-8-10-8-7-|
|-----0------0--------0-----------------|


B
[1,3] [2] [4]
|-------------------|-----------------|---------------|
|-------------------|-----------------|-----------10~-|
|-2-----3---5---3---|-2---------------|-8-7---8-7-----|
|-0-0-0-1-0-3-0-1-0-|-0-0-0-0-0-0-0-0-|-----0---------|
. . . . . . . . . . . .

Repeat B x 3

C
[1,3] [2] [4]
|---------------------------|-------|-------|
|---------------------------|-------|-7--10-|
|-2-----5---6---5-----------|-3--5--|-5--8--|
|-0-0-0-3-0-4-0-3-0-0-0-0-0-|-1--3--|-------|
. . . . . . . . .

Repeat C

Repeat B x 4, A1 x 2, A2, A3

D Play 12 times
|--------------------|
|--------------------|
|---------2211-------|
|-00001100----00-5p4-|


E [1-3] [4]
|------------------------|----------------------|
|------------------1h2p1-|----------1h2p1-1h2p1-|
|-1111111111111111-------|-11111111-------------|
|------------------------|----------------------|

Repeat E x 2
F (under solo 1) Play 4 times
|-------------------------------------|
|------6--------6--------6------------|
|------4--------4--------4------------|
|-3333---333333---333333---3377776666-|
.... ...... ...... ..........


Repeat E x 2, D x 12, F x 4

G
[1,2] [3] [4]
|------------------|----------|----------|
|---------8--------|----------|----------|
|-------7----------|-5--6--5--|-5--6--3--|
|-0-0-0------0-0-0-|-3--4--3--|-3--4--1--|
. . . . . .

Repeat G x 4

H Play 4 times
|---------------------------------|
|---------------------------------|
|---------------------------------|
|-0000000333333331111333344443333-|

Repeat G x 4, H x 4

Repeat Intro, A1 x 2, A2, A1

Outro Repeat until fade
|--------------------------------|
|--------------------------------|
|-8------------------------------|
|-6--0-0-0-0-0-0-0-0-0-0-0-0-0-0-|
. . . . . . . . . . . . . .

The End!
Другие песни: