Bolt ThrowerUnleashed Текст

0 Голосов
Author/Artist: Bolt Thrower
Title: unleashed (upon mankind)
Album: Warmaster
Transcribed by: Tox and Eric Bisoffi
Email: gorgar@vtx.ch


Tune to dropped C#

---------------------------------------------------------------------|--------
---------------------------------------------------------------------|--------
---------------------------------------------------------------------|--------
-------------------------------2----------------------------------3--|--------
---/6-5-2-3-2/6-5---/6-5-2-3-2-2------/6-5-2-3-2/6-5---/6-5-2-3-2-3--|--------
-0----------------0-----------------0----------------0------------3--|--------
Intro

---------------------------------------------------------------------|--------
---------------------------------------------------------------------|--------
---------------------------------------------------------------------|--------
---/6-5-2-3-2/6-5---/6-5-2-3-2-2------/6-5-2-3-2/6-5---/6-5-2-3-2-3--|--------
-------------------------------2----------------------------------3--|--------
-0----------------0-----------------0----------------0------------3--|--------
iff A guitar 1 (guitar same as intro)

------------------------------------------------------------------|----------
------------------------------------------------------------------|----------
------------------------------------------------------------------|----------
------------------------------------------------------------------|----------
------------------------------------------------------------------|----------
-1111000011114444333333333333333311110000111144443333444411111111-|----------
Riff B all muted

--------------------------------------------------------------|---------------
--------------------------------------------------------------|---------------
--------------------------------------------------------------|---------------
--------------------------------------------------------------|---------------
--------------------------------------------------------------|---------------
-000066665555222233332222666655550000666655553333222233333333-|---------------
Riff C all muted

-----|------------------------------------------------------------------------
-----|------------------------------------------------------------------------
-----|-Riff D1-----------------------------------------------------------------------
-----|------------------------------------------------------------------------
-----|-1-----0--------0-----1-----0-------------------------------------------
-----|---333---333133---333---333---333133------------------------------------
4tm xxx xxxxxx xxx xxx xxxxxx transition to faster riff

-|-------------------------------------------------------|-------------------
-|-------------------------------------------------------|-------------------
-|-------------------------------------------------------|-------------------
-|-------------------------------------------------------|-------------------
-|-------1-----1-----0-----------0-----1-----0-----------|-------------------
-|---------333---333---333111333---333---333---333111333-|-------------------
riff D2 xxx xxx xxxxxxxxx xxx xxx

---------------------------------|------------------------------|-------------
---------------------------------|------------------------------|-------------
---------------------------------|------------------1---0-------|-------------
-----------------------1-0-1-111-|--0-0-0-0-0-0-3-6---2---1-2-0-|-------------
---------0---1---0-----1-0-1-111-|--0-0-0-0-0-0-3-6-------------|-------------
---------0-0-1-0-0-0-0-1-0-1-111-|--0-0-0-0-0-0-3-6-------------|-------------
riff E x x x x x x x x x x riff f


Song construction :

-Intro, A, B, C, A, B, D, E, E, E, F, E, intro, A, C and end on a C#5 .

Listen to the song to know how many times in a row riff D is played.
By the way, I'm not so sure about Riffs D and F, please send me eventual corrections
at :

gorgar@vtx.ch

ENJOY
Другие песни: