BodyjarI Cant Help You Текст

0 Голосов
FTH80:G D A E ; Generated by Fast Tab, do not erase
====================
>From : Matt.Fritz
Artist : BodyJar
Bass Performance: I Can't Help You
Strings: E ,A ,D ,G



INTRO
G -------------
D -------------
A --0----3-----
E ----3----1---


G ----------------------------
D ----------------------------
A -----------5--5--5--5-------
E ---5--5--5------------------

G ----------------------------------------------------------------------------
D ----------------------------------------------------------------------------
A ----0--3--2--0--3--2--0--3--2-----------------11--0--3--2--0--3--2--0--3--2-
E --------------------------------3--3--3--3--0-------------------------------

G ---------------------------
D ---------------------------
A ---------------------------
E ---3--3--3--3--0--12--14---

OUTRO
G ----------------------------
D ----------------------------
A --------------3--3----------
E ---5--5--3--3------1--1-----

G ------------------------------------
D ------------------------------------
A --------------------8--8--8--10--10-
E ---5--5--5--8--8--8-----------------


SORRY I JUST CAN'T GET THE VERSE OR CHOURS
Другие песни: