BlurYou're So Great Текст, аккорды

0 Голосов
Intro:
Em Fmaj7
E|--0-3-2-0--0---0-0-0-|
B|--0-0-0-0--1---1-1-1-|
G|--0-0-0-0--2---2-2-2-|
D|--2-2-2-2--3---3-3-3-|
A|--2-2-2-2--0---0-0-0-|
E|--0-0-0-0--0---0-0-0-|

Verse1:
G Bm Cmaj7 G
Sad, drunk, and poorly Sleep in really late
G Bm Cmaj7 Am7
Sad, drunk, and poorly Not feeling so great
G Fmaj7 Fmaj7 C
Wandering lost in a town full of frowns
G Em Cmaj7 Am7 F D Asus4
Sad, drunk, and poorly Dogs digging up the ground

Chorus:
G Em Bm C
And I feel the light In the night and in the day
G Em Bm Asus2
And I feel the light When the sky's just mud and grey
G Em
And I feel the light

Bm (Fmaj7 G)x2
E|-When you tell me it's OK -0000-0000-0000-1-1-|
B|--1111-1111-1111-0-0--------------------------|
G|--2222-2222-2222-0-0--------------------------|
D|--3333-3333-3333-0-0--------------------------|
A|--0000-0000-0000-2-2--------------------------|
E|--0000-0000-0000-3-3--------------------------|

Fmaj7 Am Asus2
Cos you're so great, and I love you

Bridge:
Acoustic guitar plays the rhythum>

G Bm Cmaj7 G G Bm Cmaj7
E|--------------------------7--8-7-----------------------------------------|
B|---------------------8/10--------8--/9-----------------------------------|
G|------4--7-4--5/7-------------------/9----7-7---7-5-4-5-4--------7-7-5-5-|
D|-8/5-5--5-----5/7-----------------------------5------------5-5-7---------|
A|-------------------------------------------------------------------------|
E|-------------------------------------------------------------------------|

Am7 G Fmaj7 Fmaj7 C G Em
E|-------------------------------------------------------------------------|
B|-------------------------------------------------------------------------|
G|-4-5-4-------------------7-7--7-9--------10-9-10-10-9-9-5-4---4---4-4-/7-|
D|-------5--5-7-5-7--7/5-5----------9-7-9---------------------5---5--5--/7-|
A|-------------------------------------------------------------------------|
E|-------------------------------------------------------------------------|

Cmaj7 Fmaj7
E|---------------------------------------|
B|-8/108--------------------------------|
G|--------9-7--5-4--4-5-4---5-4---/10-12-|
D|------------------------5-----5-/10----|
A|---------------------------------------|
E|---------------------------------------|

Verse2:
G Bm Cmaj7 G
Tea, tea and coffee Helps to start the day
G Bm Cmaj7 Am7
Tea, tea and coffee Shaking all the way
G Fmaj7 Fmaj7 C
City's alive and, surprise, so Am I
G Em Cmaj7 Am7 F D Asus4
Tea, tea and coffee Get no sleep today

Chorus:
G Em Bm C
And I feel the light In the night and in the day
G Em Bm Asus2
And I feel the light When the sky's just mud and grey
G Em
And I feel the light

Bm (Fmaj7 G)x3
E|-When you tell me it's OK -0000-0000-0000-1-1-|
B|--1111-1111-1111-0-0--------------------------|
G|--2222-2222-2222-0-0--------------------------|
D|--3333-3333-3333-0-0--------------------------|
A|--0000-0000-0000-2-2--------------------------|
E|--0000-0000-0000-3-3--------------------------|

Fmaj7 Am Asus2
Cos you're so great, and I love you

Outro:
Electric guitar plays the scale at G Chord and then strum
to the end.>
Electirc guitar plays this scale at G chord
G G
E|-3--3--3-3-3-3-| e|-----------------------------|
B|-0--0--0-0-0-0-| B|-----------------------------|
G|-0--0--0-0-0-0-| x2 G|-----------------------------|
D|-0--0--0-0-0-0-| D|-----------------------------|
A|-2--2--2-2-2-2-| A|---2---2-3-0------2-3--3-3-3-|
E|-3--3--3-3-3-3-| E|-3---3----------3------------|

Em F Fm C D F
E|--0-3-2-0--1--1-1-1-1-1-1--1--1-1-1-1-1-1-----00-0-0-0-0-0--2----1-|
B|--0-0-0-0--1--1-1-1-1-1-1--1--1-1-1-1-1-1-----11-1-1-1-1-1--3----1-|
G|--0-0-0-0--2--2-2-2-2-2-2--1--1-1-1-1-1-1-----00-0-0-0-0-0--2-x4-2-|
D|--2-2-2-2--3--3-3-3-3-3-3--3--3-3-3-3-3-3-----22-2-2-2-2-2--0----3-|
A|--2-2-2-2--3--3-3-3-3-3-3--3--3-3-3-3-3-3-----33-3-3-3-3-3--0----3-|
E|--0-0-0-0--1--1-1-1-1-1-1--1--1-1-1-1-1-1-------------------X----1-|
Другие песни: