BlurDay Upon Day Текст

0 Голосов
Intro multiple multiple
E-----------------------------------|times----|-7-------|times-----||
B------------------x----------------|---------|-8-------|----------||
G---x-----------x-----x--------x----|---------|-7-------|----------||
D------x-----x-----------x--x-------|---------|---------|-5--------||
A-----------------------------------|---------|multiple-|-5--------||
E-play strings btwn. bridge and nut-|-3-------|times----|-3--------||

Verse
E-------------------------------------||
B----h---p---h---p---h----------------||
G---4-(5)-(4)-(5)-(4)-(5)...-----4/7--||
D-------------------------------------||
A-------------------------------------||
E-------------------------------------||

Waiting on this 18th day
It's just the same as any day
And although I've got nothing to say
I'm going to say it anyway

Chorus
3x
E------1--------------------------|--------1--------1--------1--------1--||
B------0--5--5--5--5--5--5--5--5--|--------1--------1--------1--------1--||
G------0--5--5--5--5--5--5--5--5--|--------2--------2--------2--------2--||
D------0--5--5--5--5--5--5--5--5--|--------3--------3--------3--------3--||
A------2--3--3--3--3--3--3--3--3--|--------3--------3--------3--------3--||
E---3--3--------------------------|--1--1--1--1--1--1--1--1--1--1--1--1--||

Day, day upon day, day upon day, day upon day

Everybody's here with me
We're in the smallest room you see
And although we've got nothing to do
We're going to do what do I do

Middle

multiple 2x multiple
E---0--times--------------------------------------|--0--times--||
B---2-----------h---p---h---p---h-----------------|--2---------||
G---2----------4-(5)-(4)-(5)-(4)-(5)... -----4/7--|--2---------||
D---2---------------------------------------------|--2---------||
A---0---------------------------------------------|--0---------||
E-------------------------------------------------|------------||

Ending
multiple
E---0--times--||
B---2---------||
G---2---------||
D---2---------||
A---0---------||
E-------------||
Другие песни: