BlurAll Your Life Текст

0 Голосов
INTRO: disto
D# B
--------------------------------
--------------------------------
-------------------------------- x2
--5~~---------------------------
-------2~~--2h4--2h4s6--4h6--4--
--------------------------------

VERSE1:
D#5 B5 D#5 A#5 F5 G# A#
------------------------4--4--x--x--4----6--6--x--x--6--
------------------------4--4--x--x--4----6--6--x--x--6--
--8-------8-------------5--5--x--x--5----7--7--x--x--7--
--8---9---8---8---3---6-------x--x-----8-------x--x-----
--6---9---6---8---3---6-------x--x-----8-------x--x-----
------7-------6---1---4-------x--x-----6-------x--x-----

then play the intro just once

VERSE2:
D#5 B5 D#5 A#5 F5 G# A#
------------------------4--4--x--x--4----6--6--x--x--6--
------------------------4--4--x--x--4----6--6--x--x--6--
----------8-------------5--5--x--x--5----7--7--x--x--7--
--5~~-9---8---8---3---6-------x--x-----8-------x--x-----
------7---6---8---3---6-------x--x-----8-------x--x-----
------7-------6---1---4-------x--x-----6-------x--x-----

B D#5
----7--7--x--x--7-------
----7--7--x--x--7-------
----8--8--x--x--8-------
--9-------x--x-----5~~--
--9-------x--x----------
--7-------x--x----------

CHORUS:
A# C G#
--6---0---4--
--6---1---4--
--7---0---5--
--8---2---6-- x3
--8---3---6--
--6-------4--

F G# A#
--1---4---6--
--1---4---6--
--2---5---7--
--3---6---8--
--3---6---8--
--1---4---6--

then play the intro

VERSE3: same as verse2

CHORUS:
A# C G#
--6---0---4--
--6---1---4--
--7---0---5--
--8---2---6-- x3
--8---3---6--
--6-------4--

F G# A# G# A#
--1---4---6---4---6--
--1---4---6---4---6--
--2---5---7---5---7--
--3---6---8---6---8--
--3---6---8---6---8--
--1---4---6---4---6--

ENDING: there are many strange noises that I tried
to tab as right as possible...
-----------
-----------
-----------repeat until the end
--5~~------
------2~~--
-----------

A second guitar then starts to make strange things
on these two chords:

D# B
--6---7--
--8---7--
--8---8--repeat
--8---9--
--6---9--
------7--

Then play this:
-----------------------------------------
--s19--17--13--11(repeat)--6h7r(repeat)--
-----------------------------------------
-----------------------------------------
-----------------------------------------
-----------------------------------------
Другие песни: