BlizzardWeed Текст

0 Голосов
WEED

Blizzard - Vulgar Use of Disgust (1993)

Tune down 1 1/2 steps

|-------------------------------|-------------------------------------------|
|-------------------------------|-------------------------------------------|
|-------------------------------|-------------------------------------------|
|-------x-x---76-5-------5/7---|----------x-x----76-5-------5/7-----------|
|-7-7---------54-3---(0)-3/5---|----7-7----------54-3---(0)-3/5-----------|
|-5-5---------------------------|----5-5------------------------------------|
| |
|-------------------------------|---------------------------------|
|-------------------------------|---------------------------------|
|-------------76-5-------5-7---|-----------------76-5-------5-7-|
|-5h7-7------------------------|--5h7-7-------------------------|
|-------------------------------|---------------------------------|
|-------------------------------|---------------------------------|

|-------------------------------|-------------------------------|
|-------------------------------|-------------------------------|
|-------------------------------|-------------------------------|
|-------------------------------|-------------------------------|
|-7---(7)-----5----10---14--7-|-7---(7)-----5---10--14--7---|
|-5---(5)-----3-----8---12--5-|-5---(5)-----3----8--12--5---|
| |
|-------------------------------|-------------------------------|
|-------------------------------|-------------------------------|
|--------------------5---7^p5---|-------------------5--7^p5-----|
|5/7-----------5--------------7-|5/7-----------5------------7---|
|-------------------------------|-------------------------------|
|-------------------------------|-------------------------------|

|----------------------------------------------------------|
|----------------------------------------------------------|
|----------------------------------------------------------|
|--4-------4-4-4-4/6----6-6--------------------------------|
|--2-------2-2-2-2/4----4-4--------------------------------|
|----------------------------------------------------------|

|----------------------------------------------------------|
|--6-7-6h7p6---6-7-6h7p6---6-7-6h7p6---6-7-6h7p6---7-7/9---|
|------------6-----------6-----------6-----------6---------|
|----------------------------------------------------------|
|----------------------------------------------------------|
|----------------------------------------------------------|

Solo:
|-------9~---9---------------|----------9----------9--------|
|-12^----------12-9----------|-------------12-12^-----------|
|--------------------11p9----|-9-11^------------------------|
|-------------------------11-|------------------------------|
|----------------------------|------------------------------|
|----------------------------|------------------------------|

|-------9~---9---------------|---------------------------------|
|-12^----------12-9----------|---------------------------------|
|--------------------11p9----|-11p9----------------------------|
|-------------------------11-|------11--11p9-------------------|
|----------------------------|---------------11----------------|
|----------------------------|-------------------12--9---------|

|----------------------------------------------------------|
|----------------------------------------------------------|
|----------------------------------------------------------|
|-6-------------------6------------------------------------|
|-4--7--6--5---------4--7--6--5--------------------------|
|----5--4--3------------5--4--3--------------------------|
Другие песни: