BlizzardTwin Brothers Collapse Текст

0 Голосов
THE TWIN BROTHERS COLLAPSE

Blizzard
(Agusto)

INTRO:
[Synthesizers] Em(add9)
e-|--------------||----0-----------------------------------|
B-|--------------||----0-----------------------------------|
G-|--------------||----0-----------------------------------|
D-|--------------||----4-----------------------------------|
A-|--------------||----2-----------------------------------|
E-|--------------||----0-----------------------------------|

Cmaj7 Em(add9)
e-|-----0---------------------------|-----0----------------------------|
B-|-----0---------------------------|-----0----------------------------|
G-|-----0---------------------------|-----0----------------------------|
D-|-----2---------------------------|-----4----------------------------|
A-|-----3---------------------------|-----2----------------------------|
E-|---------------------------------|-----0----------------------------|
^
VERSE:
Em
e-|-----0---------------------------|
B-|-----0---------------------------|
G-|-----0---------------------------|
D-|-----2---------------------------|
A-|-----2---------------------------|
E-|-----0---------------------------|
On the 11th day,

(C) (Em)
of the ninth month of the first year
(C)
Fire will come
(Am) (Em)
from the heavens and the sky
(C)
The twin brothers will be tore from the Heavens
(Em)
And thousand of others will die
(C)
What will happen next
(Em)
What will happen next
(C)
What will happen next

Em Cmaj7 Em
e-|---0--0--0-----0--0--0--0---0--0--0--0------0---|
B-|---0--0--0-----0--0--0--0---0--0--0--0------0---|
G-|---0--0--0-----0--0--0--0---0--0--0--0------0---|
D-|---2--2--2-----2--2--2--2---2--2--2--2------2---|
A-|---2--2--2-----3--3--3--3---3--3--3--3------2---|
E-|---0--0--0----------------------------------0---|
So whate will happen next.

Strums:
Em Cmaj7 Em Cmaj7
Em Cmaj7 Em Cmaj7

SOLO:
Em Em(add9)
e-|------0-0-0-0-----0-0-0-0-|-----0-0-0-0---0-0-0-0-|-----0-0-0-0---0-0-0-0--|
B-|------0-0-0-0-----0-0-0-0-|-----0-0-0-0---0-0-0-0-|-----0-0-0-0---0-0-0-0--|
G-|------0-0-0-0-----0-0-0-0-|-----0-0-0-0---0-0-0-0-|-----0-0-0-0---0-0-0-0--|
D-|--2-----------2-----------|-2/4---------4---------|-4/5---------5----------|
A-|--------------------------|-----------------------|------------------------|
E-|--------------------------|-----------------------|------------------------|

e-|--------0-0-0-0-----0-0-0---|
B-|--------0-0-0-0-----0-0-0---|
G-|--------0-0-0-0-----0-0-0---|
D-|--5/7-----------7-----------|
A-|----------------------------|
E-|----------------------------|

Strums:
Cmaj7 Em(add9) Cmaj7 Em(add9)
Cmaj7 Em(add9) Cmaj7 En(add9)

Repeat Solo

VERSE:
^ ^
Em Cmaj7 Em
e-|---0----------------------------|----0-----------------------0---------|
B-|---0----------------------------|----0-----------------------0---------|
G-|---0----------------------------|----0-----------------------0---------|
D-|---2----------------------------|----2-----------------------2---------|
A-|---2----------------------------|----3-----------------------2---------|
E-|---0----------------------------|----------------------------0---------|
On the 11th day, of the ninth month of the first year

Cmaj7 A Em(add9)
e-|---0----------------------------|-0---------------------------------0----|
B-|---0----------------------------|-2---------------------------------0----|
G-|---0----------------------------|-2---------------------------------0----|
D-|---2----------------------------|-2---------------------------------4----|
A-|---3----------------------------|-0---------------------------------2----|
E-|--------------------------------|-----------------------------------0----|
In the capitol of this great land Where soldiers are trained.

Cmaj7 Em
e-|---0----------------------------|---0-----------------------------------|
B-|---0----------------------------|---0-----------------------------------|
G-|---0----------------------------|---0-----------------------------------|
D-|---2----------------------------|---2-----------------------------------|
A-|---3----------------------------|---2-----------------------------------|
E-|--------------------------------|---0-----------------------------------|
A bird of fire will clip it. And turn it into grains of sand

Cmaj7 Em(add9)
e-|---0----------------------------|---0-----------------------------------|
B-|---0----------------------------|---0-----------------------------------|
G-|---0----------------------------|---0-----------------------------------|
D-|---2----------------------------|---4-----------------------------------|
A-|---3----------------------------|---2-----------------------------------|
E-|--------------------------------|---0-----------------------------------|
And the great man will declare war. On those who done such a deeds to other men

Cmaj7
e-|---0-----------------------0-----||
B-|---0-----------------------0-----||
G-|---0-----------------------0-----||
D-|---2-----------------------4-----|| FADE OUT
A-|---3-----------------------2-----||
E-|---------------------------0-----||
So what_____________will happen next.
Другие песни: