Blink 182Touchdown Boy Текст

0 Голосов
Blink 182

Touchdown Boy INTRO
Guitar TAB
Standard Tuning

|--------------------------------------------------------|
|--------------------------------------------------------|
|---9---------8--------4--------2--------1---------------|
|---9-x’s-7---8x’s-3---4x's-5---2—x’s-3--1-x's-3--2------|
|---7---------6--------2--------0--------0--------2-x's-5|
|-------------------------------------------------0------|

|--------------------------------------------------------|
|--------------------------------------------------------|
|---9---------8--------4--------2--------1---------------|
|---9-x’s-3---8x’s-3---4x's-5---2—x’s-3--1-x's-3--2------|
|---7---------6--------2--------0--------0--------2-x's-5|
|-------------------------------------------------0------|

THIS IS PROBABLY NOT EXACT BUT IT SOUNDS
PRETTY GOOD I DIDNT SEE A LOT OF OTHER TABS
FOR THIS SONG SO I GAVE IT A TRY TELL ME IF IT SOUNDS BAD TO YOU
LISTEN TO THE SONG TO GET THE RYTHUM
Другие песни: