Blink 182Peggy Sue Live Текст

0 Голосов
-----------------------| regular tuning

-----------------------|
-----------------------|
---7-7-7---7--6/9------| i'm brendan lucas,
--0-0-0---0------------|x4 this is the live solo.
-----------------------| remember?


-----------------------------|
--10------9---9/10--10-9/12--|
-----9-9----9------9---------|
-----------------------------|
-----------------------------|x2
-----------------------------|


then the bass part
----------------------------------------------|(sounds the same on guitar
----------------------------------------------|
--------7-5------55-7-5-------7-5-7777--5555--|
---5555-----0000---------5555---------------x-|alot

say one two...

then
-------------------------------------------|
-------------------------------------------|
--4-5-7-4-5-7-7-7-7-5-5-5------------------|
--5-5-5-5-5-5-5-5-5-5-5-5------------------|
--0-0-0-0-0-0-0-0-0-0-0-5------------------|
-------------------------------------------|
bye
this 100% right garuenteed
Другие песни: