Blink 182Obvious Текст

0 Голосов
Intro:
E||------------------||
B||------------------||
G||------------------||
D||---2--2-2--2-22-2-||
A||---4--4-4--0-00-0-||
D||---0--0-0--3-33-3-||

Verse:
E||--------------------------|| ||-------|| THis Version I prefer, TOm plays
B||--------------------------|| ||-------|| this For and example Listen to
G||-9------11-----13------14-|| OR ||-------|| The song live on AOL
D||-x------x-------x-------x-|| ||-4---2-||
A||-7------9------11------12-|| ||-2---0-||
D||--------------------------|| ||-0---3-||

Or To Play Live version

Chorus:
E||-----------------------------------------|
B||-----------------------------------------|
G||-----------------------------------------|
D||---2222222222222222----------------------|
A||---2222222222222222----------------------|
D||---3333333333333333--777-555-888-00 22-3-|

Note THen Pause Interlude:
E||----------|| ||---------------------------------||
B||----------|| ||---------------------------------||
G||----------|| ||----000--------------------------||
D||----------|| THEN ||----999-----666-101010--9-9-1010-||
A||--1hold---|| ||----777-777-444--8-8-8--7-7--8-8-||
D||--0hold---|| ||--------888----------------------||

Outro:
E||------------------------------------------------------------------------|
B||------------------------------------------------------------------------|
G||---9999999999999999------------------9999999999999999----------22222222-|
D||---9999999999999999-9999999999999999-9999999999999999-99999999-22222222-|
A||---7777777777777777-6666666666666666-7777777777777777-66666666-00000000-|
D||------------------------------------------------------------------------|

Last note:
E||-----|
B||-----|
G||-----|
D||---4-|
A||---2-|
D||---0-|

ORDER:
intro: 6X
verse: 1x
Chorus: 2X
intro: 4X
verse: 1X
chorus: 4X
HOld Note
interlude: 6X
outro: 4X
last note: 1X (let it ring)
Другие песни: