BlindsideAbout A Burning Fire Текст, аккорды

0 Голосов
-------------------------------------------------------------------------------

About A Burning Fire - Blindside
-------------------------------------------------------------------------------
Tabbed by: Jon Schmidt
Email: Iceman2001X@hotmail.com

Tuning: CGCFAD

Intro/Chorus

D|---------------------------------------------------------------------------|
A|---------------------------------------------------------------------------|
F|---------------------------------------------------------------------------|
C|1--4-3---------------------------------------------------------------------|
G|1--4-3---------------------------------------------------------------------|
C|1--4-3---------------------------------------------------------------------|
Repeat 8X

Verses

D|---------------------------------------------------------------------------|
A|---------------------------------------------------------------------------|
F|---------------------------------------------------------------------------|
C|4---4-5-4-4---4-5-3-4-5-4--------------------------------------------------|
G|4---4-5-4-4---4-5-3-4-5-4--------------------------------------------------|
C|4---4-5-4-4---4-5-3-4-5-4--------------------------------------------------|
Repeat 8X


D|---------------------------------------------------------------------------|
A|---------------------------------------------------------------------------|
F|--------------------15-15---13-13---12-13-14-------------------------------|
C|1-1----4-4----3------x--x----x--x----x--x--x-------------------------------|
G|1-1----4-4----3-----13-13---11-11---10-11-12-------------------------------|
C|1-1----4-4----3------------------------------------------------------------|
Ending


Here it is Blindside fans! About A Burning Fire kicks @$$ go pick it up if you haven't!!!

===============================================================================
Другие песни: