Blake SheltonGod Gave Me You Текст

0 Голосов
(Intro/Verse 1)
e|---5--5--5--5--5----0--0--0--0--0--|
B|--8--8--7--7--7----3--3--2--2--2---|
G|-7--7--7--7--7----4--4--2--2--2----|
D|-----------------------------------|
A|-----------------------------------|
E|-----------------------------------|

e|---5--5--5--5--5----0--0-0---------------|
B|--8--8--7--7--7----3--3--2---5h7p5-------|
G|-7--7--7--7--7----4--4---2--------7p6h7--|
D|-----------------------------------------|
A|-----------------------------------------|
E|-----------------------------------------|

e|-5--5---5--5----0--0----5--5---0--0----5--5---0--0--|
B|-8--7--7--7--7--3--2----8--7---3--2----8--7---3--2--|
G|-7--7-7--7--7---4--2----7--7---4--2----7--7---4--2--|
D|----------------------------------------------------|
A|----------------------------------------------------|
E|----------------------------------------------------|
I've been... The person...

Chorus
e|----------| e|------|
B|------3---| B|-3----|
G|----------| G|-4----| -()-Indicates a small riff, tabbed later
D|-2--------| D|-4----|
A|-2----1---| A|-2----|
E|-0----3---| E|------|
(Em) (G) (Bm)
...And I need you
Em G

(Chorus)
God gave me you for the ups and downs,
G D Bm A
God gave me you for the days of doubt,
G D Bm A
For when I think I've lost my way, there are no words here
left to say it's true
G D Bm A
........................God gave me you...............Gave me you

Em (1) G A
| G D Bm A
| G D Bm A (2)

(Verse 2)
There's more here than what we're seeing,
G D
A divine conspiracy,
Bm A (3)
That you, an angel lovely, could somehow fall for me,
G D Bm A (4)
You'll always be love's great martyr,
G D
I'll be the flattered fool,
Bm A
And I need you.
Em (5) G

(Chorus)
God gave me you for the ups and downs,
G D Bm A
God gave me you for the days of doubt,
G D Bm A
For when I think I've lost my way, there are no words here
left to say it's true
G D Bm A
........................God gave me you
Em (6) G A D

(Bridge)
On my own I'm only
Bm
Half of what I could be
G
I can't do without you
D A (7)
We are stitched together
Bm
And what love has tethered
G
I pray we never undo

D A

(Chorus - Outro)
God gave me you for the ups and downs
G D Bm A
God gave me you for the days of doubt
G D Bm A (8)
God gave me you for the ups and downs
G D Bm A
God gave me you for the days of doubt
G D Bm A
For when I think I've lost my way
G D
There are no words here left to say, it's true
Bm A Em (9)
God gave me you.................................Gave me you
G A | G D
Bm A | G D
Bm A
Gave me you
G D Bm
A | G D
Bm A

e|---5--5--5--5--5----5--5--5--5--5----5--5--5--5--5--|
B|--8--8--8--8--8----8--8--8--8--8----8--8--8--8--8---|
G|-7--7--7--7--7----7--7--7--7--7----7--7--7--7--7----|
_____
Riffs/Fillers

e|-2-0-------| -(1,6&9) e|-0-2-0----------| -(2)
B|----3-0----| B|-------3-2-3----|
G|-----------| G|----------------|
D|-----------| D|----------------|
A|-----------| A|----------------|
E|-----------| E|----------------|

e|-2p0--5-----| -(3) e|-5/7/5--------| -(4) e|-2/3/2-0----| -(5)
B|-----3------| B|-------2/4----| B|--------3---|
G|------------| G|--------------| G|------------|
D|------------| D|--------------| D|------------|
A|------------| A|--------------| A|------------|
E|------------| E|--------------| E|------------|

e|-0------------| -(7)
B|----2-0-2-----|
G|-----------2--|
D|--------------|
A|--------------|
E|--------------|

e|---------------------| -(8)
B|---------------------|
G|---------------------|
D|---------------------|
A|---------------------|
E|-9/10-9-7-5-3-2-0----|
Другие песни: