Black SabbathZero The Hero (tab) Текст

0 Голосов
|--------------------------------------------------------------------

|--------------------------------------------------------------------
|--------------------------------------------------------------------
|--------------------------------------------------------------------
|------------------------1-------------------------------1-----------
|--1-2-3-3-1-2-3-3-1-2-3---3-1-3-3-1-2-3-3-1-2-3-3-1-2-3---3-1-3-3---

|----------------------------------------------------------
|----------------------------------------------------------
|----------------------------------------------------------
|-----5------------5------------7------------7-------------
|--------4-3----------4-3----------6-5----------6-5--------
|--3------------3---------3-4-5-----------5----------------

"whatcha gonna be.."
|----------------------------------------------------------
|----------------------------------------------------------
|----------------------------------------------------------
|--------------------------------------7---5---------------
|-----------------------3--------------5---3---5---7-------
|-3-4-5-5-3-4-5-5-3-4-5---5-3-5-5-3-5----------3---5-------
Другие песни: