Black SabbathTV Crimes (tab) Текст

0 Голосов
TV Crimes

Black Sabbath - Dehumanizer (1992)


-------------------------------------------------------||------||
-------------------------------------------------------||------||
----------------------------------------------5--------||--7---||
|--5--------8--------4----------4--5-------8-------4------5--------||--7---||
|--5--------8--------4----------4--5-------8-------4------3--3p0---||--5---||
|--3--------6--------2--------0h2--3-------6-------2---------------||------||

----------------------------------------------------
----------------------------------------------------
----------------------------------------------------
----------------------------------------------------
|-----1-----1-----1-----1-------------1-----1-------------------
|-1-3---3-3---3-3---3-3---3-1-3---1-3---3-3---3-3-3-3-3-3-3-3---

---------------------------------------------------------------
---------------------------------------------------------------
|----------3------------3---------3--------------3------------3-----8-7--3-
|-------0--3-----3------3---------3-----------0--3-----3------3-----8-7--3-
|---1-3----1-----3------1---------1-------1-3----1-----3------1-----6-5--1-
|-3--------------1--3-3---3-3-3-3---3-3-3--------------1--3-3---3-3--------

holy father...
-------------------------------------------------
-------------------------------------------------
|------3---5---7---5-----3-------3-------3---5---7---8-------
|--5---3---5---7---5-----3---3---3---5---3---5---7---8-------
|--5---1---3---5---3-----1---3---1---5---1---3---5---6-------
|--3-------------------------1-------3-----------------------

-------------------------------------------------
-------------------------------------------------
-------------------------------------------------
-------------------------------------------------
|-5-4-3---3-------1---0--------/5-4-3---3-------1---0--------
|-------6---6-5-3---3---1---3---------6---6-5-3---3---1---3--

w/ solo
--------------------------------------------
--------------------------------------------
|--9------7-------9----------7----||--5---4---5---------------------------------
|--9------7---7---9------7---7----||--5---4---5---4-5-7-5-7-8-9-11-12-11-12-----
|--7------5---7---7------7---5----||--3---2---3---2-3-5-3-5-6-7--9-10--9-10-12--
--5----------5--------------------------10--

----------------------------------------------------
----------------------------------------------------
----------------------------------------------------
----------------------------------------------------
|-----1-----1-----1-----1-------------1-----1-------------------
|-1-3---3-3---3-3---3-3---3-1-3---1-3---3-3---3-3-3-3-3-3-3-3---
Другие песни: