Black SabbathTurn Up The Night (tab) Текст

0 Голосов
Turn Up The Night

Black Sabbath - Mob Rules (1981)


|-----------------------------------------------------------
|-----------------------------------------------------------
|-----------------5----7----------------------5---7-------
|-----------------5----7------------------3-2-5---7-------
|-3-3-3-3-3-3-3-3-3-(0)5--3-3-3-3-3---3-5-----3---5-------
|-1-1-1-1-1-1-1-1----------1-1-1-1-1-5----------------------

**1 & 3***
"a rumble of thunder..."
|----------------------------------------------------------
|----------------------------------------------------------
|------------------8-------8`------------------------------
|------------------8---------------------------------------
|-3333333333333333-6-5h6-6----6-6-5------------------------
|-1111111111111111-----------------6-----------------------
**2**
"no rhyme or reason..."
|----------------------------------------------------------
|----------------------------------------------------------
|----------------------------------------------------------
|------------------8--8--8--8--8--8------------------------
|-3333333333333333-8--8--8--8--8--8------------------------
|-1111111111111111-6--6--6--6--6--6------------------------
**4(only on first verse) 3 on rest**
|----------------------------------------------------------
|----------------------------------------------------------
|------------------8--8--8--8--8--8--7--7--7--7--7--7------
|------------------8--8--8--8--8--8--7--7--7--7--7--7------
|-3333333333333333-6--6--6--6--6--6--5--5--5--5--5--5------
|-1111111111111111-----------------------------------------

Fill
|----------------------------------------------------------
|-13^--^13-10h13-----13p10---------------------------------
|----------------12^-------12p109-------------------------
|----------------------------------12----------------------
|-------------------------------------1210-8--------------
|---------------------------------------------10--8^-------

|----------------------------------------------------------
|----------------------------------------------------------
|----------------------------------------------------------
|---------------------------10-----------------------------
|-10p8------10/1210-8--/12----12--10p87-8p7--------------
|------10-8-----------------------------------8/10---end fill


"Turn up the night..."
|-----------------------|-----------------------------------
|-----------------------|-----------------------------------
|-----------------3-----|-----------------------5--3--------
|-----------------3-----|-----------------------5--3--------
|-3-3-3-3-3-3-3-3-1-----|-------3-3-3-3-3-3-3-3-3--1--------
|-1-1-1-1-1-1-1-1-------|-------1-1-1-1-1-1-1-1-------------
| |
|-----------------------|-----------------------------------
|-1013101310131013-13^--|-----1013101310131013--------------
|-----------------------|----------------------12^----------
|-----------------------|-----------------------------------
|-----------------------|-----------------------------------
|-----------------------|-----------------------------------

"it feels so right..."
|----------------------------------------------------------
|----------------------------------------------------------
|-7---7-7-7--10-----5----5------5-7------------------------
|-7---7-7-7--10-----5----5------5-7------------------------
|-5---5-5-5---8-----3----3--(0)-3-5----5-3-----------------
|------------------------------------------5-3-------------

"like a fire needs a spark to burn..."
|----------------------------------------------------------
|----------------------------------------------------------
|----------------------------------------------------------
|-5-6-7-8-9-10-11-12-13-14-15-16--------------------------
|-3-4-5-6-7--8--9-10-11-12-13-14--------------------------
|----------------------------------------------------------

**1**
|----------------------------------------------------------
|----------------------------------------------------------
|-7---7-7-7--10-----5----5------5-7------------------------
|-7---7-7-7--10-----5----5------5-7------------------------
|-5---5-5-5---8-----3----3--(0)-3-5----5-3-----------------
|------------------------------------------5-3-------------
**2**
|----------------------------------------------------------
|----------------------------------------------------------
|-7---7-7-7--12-----5----5------5-7------------------------
|-7---7-7-7--12-----5----5------5-7------------------------
|-5---5-5-5--10-----3----3--(0)-3-5----5-3-----------------
|------------------------------------------5-3-------------
Другие песни: