Black SabbathThe Mob Rules (tab) Текст, аккорды

0 Голосов
The Mob Rules

Black Sabbath - Mob Rules (1981)


--------------------------------------------------
--------------------------3-3-3-------------------
|-2-2---2-----------2-2---2-----------2-2-2-------------------
|-2-2---2-----------2-2---2-----------0-0-0-------------------
|-0-0---0-3p0-3p0---0-0---0-3p0-3p0---------------------------
|-----3^----------0-----3^----------0-------3-2-3-2-----------


|-3-3-3-2--------3-3-3-2--------3-3-3-2--/5-------------------
|-3-3-3-3--------3-3-3-3--------3-3-3-3--/6-------------------
|-2-2-2-2--------2-2-2-2--------2-2-2-2--/5-------------------
|-0-0-0-0--------0-0-0-0--------0-0-0-0-----------------------
--------------------------------------------------
-------------------------------------^3-----------

backing for solo:
--------------------------------------------------
--------------------------------------------------
|-7--7-7------------------------10-9-10-9-7--7-7--------------
|-7--7-7-----8--8-8-----10-1010-10-9-10-9-7--7-7--------------
|-5--5-5-----8--8-8-----10-1010--8-7--8-7-5--5-5--------------
-6--6-6------8--8-8-------------------------------
Другие песни: