Black SabbathLive Intro to Black Sabbath (tab) Текст

0 Голосов
|----------0--|-------|----------0-----0-----0----------------------

|--------0----|-------|--------0---0-----0-----0--------------------
|------5------|--*-/--|------5-------5-----5-----5------------------
|----7--------|--/-*--|----7--------------------------and so on...--
|--0----------|-------|--0------------------------------------------
--------------------------------


|-------0-------------------------0-----0------
|---------0-----0---------------0---0----------
|-4h5h6-----5-----5---5-------5-------5--------
--7-----7---7---7------------------
--------------0--------------------
-----------------------------------


|-------5-----------5-----------3-----------3--------------
|-----6---6-------5---5-------4---4-------3---3------------
|---5-------5---5-------5---3-------3---3-------3----------
|-0-----------5-----------0-----------3--------------------
-----------------------------------------------
-----------------------------------------------


-----------------------------------------------
|-----8-----7-----6-----5-----4-----3-----3-----2--3-------
|---7-----7-----5-----5-----3-----3-----2-----2----2-------
|-0-----7-----0-----5-----0-----3-----0-----2------0-------
-----------------------------------------------
-----------------------------------------------
Другие песни: