Black SabbathKill In The Spirit World (tab) Текст

0 Голосов
Kill In The Spirit World

Black Sabbath - Headless Cross (1989)


|----------------------------------------------------------
|----------------------------------------------------------
|----------------------------------------7---5-------------
|--------------7-7-5----7-7-5----2-------7---5-------------
|-----7-7-5----------7--------7--2-------5---3-------------
|-5h7-------7--------------------0-------------------------

VERSE:
|----------------------------------------------------------------
|----------------------------------------------------------------
|-7----mute-----10--let ring-----7-----10------------------------
|-7---8---------10--10-----------7--8--10--10----8---------------
|-5---8----------8--10-----------5--8---8--10----8--7h8p7-5------
|-----6--------------8--------------6-------8----6----------7p5--

"theres been a kill in the spirit..."
|----------------------------------------------------------
|--------------------------------------------10------------
|--------------------------------------(7)/9----97--------
|-------------------------------/8-7~----------------------
|---7-6---5-4---7-6---5-4---4-5----------------------------
|-5-----5-----5-----5-----5--------------------------------

|----------------------------------------------------------
|----------------------------------------------------------
|-------------------------------------------------5--------
|---------------------------------------------7---5--------
|---7-6---5-4---7-6---5-4---4-5---------------7---3--------
|-5-----5-----5-----5-----5-----/6-5~---------5------------

"when heaven is closer..."
|----------------------------------------------------------
|----------------------------------------------------------
|--7--------------------7-------5-4-5--7-------------------
|--7----------7---------7-------5-4-5--7------5-----3----5-
|--5----------7---------5-------3-2-3--5------5-----3----5-
|-------------5-------------------------------3-----1----3-
Другие песни: