Black SabbathInto The Void (tab) Текст

0 Голосов
-----------------9----9---9---9---9-------------

2----1----0--8-7---7----7---7---7---75---------
|-----0-1-2----2----2---------------------------------------
|-0-3-------------------------------------------------------


-9----8----7------9-----9---9---9---9----------
|------7-8-9----9----9---8--7---7-----7---7---7---75-------
|-7-10------------------------------------------------------
------------------------------------------------


------------------------------------------------
--------0-97-5~--------------0-9-5-------------
|-7-7-7-7-7--5--5-5----------7-7-7-7-7--5-------7-5---------
|---0-0-0-0--------------------0-0-0-0--------------7-------


------------------------------------------------
--------0-97-5---------------------------------
|-7-7-7-7-7--5--5-5-----------------------------------------
|---0-0-0-0------------------8-8-8-8-8-10-7-----------------


------------------------------------------------
------------------------------------------7^----
|-7--7-7-5h7-5-5h7-5h7-7-5~---5h7-7-7-5h7-5-5h7-5h7-7-------
------------------------------------------------


|-9--8~~-7--------------
9--8--7-----
------------
------------

double time
------------------------------------------------
---8--8-7---------------------8--8-7------------
|-7-7-10(10)p7--------10^-7--7-7-10(10)p7--------10^-7------
------------------------------------------------
end 2x time

------------------------------------------------
----------5---------------------------5---------
|--7-6-5-------5--6-7---7~~----7-6-5-------5--6-7---7~~-----
|--------7~~-------------------------7~~--------------------
Другие песни: