Black SabbathCardinal Sin (tab) Текст

0 Голосов
Cardinal Sin

Black Sabbath - Cross Purposes (1994)

|----------------------------------------------------------
|----------------------------------------------------------
|--6-------------------------------------------------------
|--6-----1-2/4--2---2-4-5/7--5----------7------------------
|--4---4--------2------------5-----5----7-------(X 2)------
|---------------0------------3----------5------------------

"where do you go.."
|----------------------------------------------------------
|----------------------------------------------------------
|--7-7-6----7-7-6----10-10-9---7-7-6---7-7-6---10-9--------
|--7-7-6----7-7-6----10-10-9---7-7-6---7-7-6---10-9--------
|----------------------------------------------------------
|----------------------------------------------------------

"all the world is watching..."
|--(0)-----------------------(0)---------------------------
|--(0)-----------------------(0)---------------------------
|-------------3-------------------------3---5--------------
|-2-----------3-------------2-----------3---5--------------
|-2---------2-1-------------2---------2-1---3-----back to verse
|-0---0-2-3-----------------0---0-2-3----------------------


|----------------------------------------------------------
|----------------------------------------------------------
|-9-11-12------9-11-12-14-1211-9-------------------------
|-9-11-12------9-11-12-14-1211-9-------------------------
|-7--9-10------7--9-10-12-10-9-7-------------------------
|----------------------------------------------------------

"when you sin..." *2nd time* w/ fill 1
|----------------------(X 2)-||----------------------------
|----------------------------||----------------------------
|----------------------------||----------------------------
|----------5~---------4~--x-||--9-------------------------
|--3-3-3-3----3-3-3-3--------||--7----7-6-----5-4----------
|----------------------------||--0--------7-------5--------

Fill 1
|-------------------|
|-5--7---8--10--12--|
|-7^-9^-10^-12^-14^-|
|-------------------|
|-------------------|
|-------------------|
Другие песни: