Black SabbathBorn Again Текст

0 Голосов
Born Again

Black Sabbath - Born Again (1983)

|-------------------------------------------------------------
|-------------------------------------------------------------
|-5------5/7--54-4------5-----5/7--54-4-----5--4/5--5-------
|-7------7/9--75-5------7-----7/9--75-5-----7--5/7--7-------
|----0-0-----------------0------------------------------------
|-------------------------------------------------------------

|---------------------------------------------------------------
|---------------------------------------------------------------
|--5--------5/7--54-4-------5---------5/7--54-4----7--54-5---
|--7--------7/9--75-5-------7---------7/9--75-5----9--75-7---
|-------0-0------------------0----0-0---------------------------
|---------------------------------------------------------------

"Born Again!!!!"
|---------------------------------------------------------------
|---------------------------------------------------------------
|-7---7-7----7--9-5-5--------7-9---11-9-7---9-7-5---7-5-4---7--
|-7---7-7----7--9-5-5--------7-9---11-9-7---9-7-5---7-5-4---7--
|-5---5-5----5--7-3-3--------5-7----9-7-5---7-5-3---5-3-2---5--
|---------------------------------------------------------------

**2nd time, goes to this**
"Born Again!!!!"
|--------------------------------------------------------------------
|--------------------------------------------------------------------
|-------------------------------------------------------7-9-7--------
|-5---5-5----5-9---9-------9-----------97-7--7-7-9-10--7-9-7-9-75--
|-5---5-5----5-9---9---9---9--9/10--9--97-7--7-7-9-10--5-7-5-9-75--
|-3---3-5----3-7---7--10---7-10/12-10--75-5--5-5-7--8--------7-53--

Sorry, no solo
Другие песни: