Black SabbathBack Street Kids (btab) Текст

0 Голосов
Back Street Kids - Bass

Black Sabbath - Technical Ecstasy (1976)

I`m just another back street kid...
-----------------------9h11-||
----------------------------||
||-7--7-7-7--7-7-7--7-7-7--7-7-7--7-7-7--7-7-7------||
----------------------------||

Nobody I know, will ever...
----------------------------6----6----------------||--
-----2--------1-2-3-4---4h6----6---6---2-----0----||--
-4-----4-3-2----------4--------------2----2----4--||--
--------------------------------------------------||--

Middle section
------------------------------------------------|-----
--0-----------0---------------0--------------0--|-----
------------------------------------------------|-----
------------------------------------------------|-10--

Living life comes easy when...
-------------------8/9--------------------------------
----12-12----12----9/10----------------12----12----12-
-12-------12----12------7--8--10----12----12----12----
---------------------------------10-------------------

solo..just groove aroung this
-8/9---------------------------------8/9--
-9/10-----------|----------12-12-12--12-12-10----9/10-
------7--8--10--|----10h12--------------------12------
----------------|-10----------------------------------

----------|h=hammer-on
----------|/=slide up
-7--8--10-|
----------|back to main riff and finesh it up..
Другие песни: