Black SabbathA National Acrobat (tab) Текст

0 Голосов
A National Acrobat

Black Sabbath - Sabbath, Bloody Sabbath (1974)

Tune down 1 1/2 steps (C#)

fig 1
--------------------------------------------|
--------------------------------------------|
--------------------4p2---------------------|
-------------5p4--------------4-5-4h5p4-----|
|-5h7-7---7----7-5h7-5h7-----|--5h7-7-7-7p5-----5---2-----------5---|
----------------------------7---------------|


----------------------------|back to
----------------------------|fig 1 on
------------7----------2----|#1+2
|-2----------5----------7----------2----|
|-2----------5----------5----------0----|
|-0----------3--------------------------|


----------------------------|back to
----------------------------|fig 1 on
|-5----------4---------------------2----|#3+4
|-5----------4----------5----------2----|
|-3----------2----------5----------0----|
------------3---------------|

fig 2 w/ wah
--------------------------------------------|
---------------------------8------------12--|
---------------------------7------------12--|
-----------5---------------6------------12--|
|---5h7--------5h7-5h7---7-5---5h7-----7----------------|
|-7----------7---------------7-------0------0-0-0-0-----|

Solo:
--------------------------15p12-------------
|-15p12----15p12----15p12----15p12----------15-|-15p12---15p12------
|-------12-------14-------14-------14----------|------12------14-14-
--------------------------------------------
--------------------------------------------
--------------------------------------------
(-r--) ~~~~~ b-> (-r--)
------------------|--15^-15^-15^-12--12--12---------|
-----------------------15------15-------|
|-14p12--14-14-151412-12---------------------151412-|
|------14-------------------------------------------|
----------------------------------------|
----------------------------------------|
r r b b b b r
------------------------------------|-----
--------------|-17^-17^-17^-17^-17^-15-17-15-17|x(5)-
|-14^--12-14-12^--------------------------------|-----
-----14-14-------------------------|-----
------------------------------------|-----
------------------------------------|-----
b b r
---------------------|-15^-^15^-12---15p12--------------
|-15^--15-12------------------------------15-15p12------
-151412-14p12-151412------------------14----
--------------------------------------------
--------------------------------------------
--------------------------------------------
r r
----------------|
|-15p12---------------------|
|------14-14^-|-12-14-14^-12------------|
-----14-12-14--|
----------------|
----------------|


-----------------|
-----------------|
||0-------------------------0------------|
||0-------------------------0------------|
||-5/7---7-5---5-------------------------|
|
Другие песни: