Black Rebel Motorcycle ClubUs Government Текст

0 Голосов
Black rebel motorcycle club - (kill the) US GOVERNMENT


tuning D A D G B E

iNTRO + vERSE

e --------------------------------
b --------------------------------
g --------------------------------
d --8--8-6-6-8-8-6-6-8-8-6-6-8-8-6
a --8--8-6-6-8-8-6-6-8-8-6-6-8-8-6
d --8--8-6-6-8-8-6-6-8-8-6-6-8-8-6


chorus (we are the ones that keep you down)

e---------------------------------
b---------------------------------
g--8------------------------------
d--8-----------------------10-----
a--6-----------------------10-----
d--------------------------10-----
Другие песни: