Black Label SocietyDemise Of Sanity Текст

0 Голосов
Artist: Black Label Society

Song: Demise of Sanity
Album: 1919 Eternal

From: www.BlackLabelSociety.net





Dropped C tuning: C G C F A D


Main Riff
D---------------------------------------------------------------------------------------------------
A---------------------------------------------------------------------------------------------------
F---------------------------------------------------------------------------------------------------
C---0--0--6--5--3--0----0---0--6--5--3--0----0---0--6--5--3--0---0--0--3--0-------------------------
G---0--0--6--5--3--0----0---0--6--5--3--0----0---0--6--5--3--0---0--0--3--0-------------------------
C---0--0--6--5--3--0----0---0--6--5--3--0----0---0--6--5--3--0---0--0--3--0-----12/10~--9/10~-------

Bridge
D-----------------------------------------------------------------------
A-----------------------------------------------------------------------
F-----------------------------------------------------------------------
C---2--------------------------------------2----------------------------
G---2--------------------------------------2----------------------------
C---2-------------0--2--3~--------------2-------------0--2--3~----------

Chorus
D--------------------------------------------------------------------------------------
A--------------------------------------------------------------------------------------
F--------------------------------------------------------------------------------------
C----0----0--------1-----0----0--------1------0----0--------1------6-6-6--5-5-5--3-3---
G----0----0--------1-----0----0--------1------0----0--------1------6-6-6--5-5-5--3-3---
C----0----0--------1-----0----0--------1------0----0--------1------6-6-6--5-5-5--3-3---

Back to MAIN RIFF

SOLO: (mess around with this)

---------------------------------------------------------------------------------------------
10---8------------------12---9---------------------14---12---------------------16---14-------
-----9---7-------------------11---9--------------------13----11------------------15----17----
---------------------------------------------------------------------------------------------
---------------------------------------------------------------------------------------------
---------------------------------------------------------------------------------------------

----------------------------------------------------------------19b(21)//////////---
17---15-------------------19---17-------------------------------------------------------------
------16---14-------------------18---16-------------------------------------------------------
----------------------------------------------------------------------------------------------
----------------------------------------------------------------------------------------------
----------------------------------------------------------------------------------------------
Другие песни: