Black KeysIf You See Me Текст

0 Голосов
Main riff (intro)
e|-----------------------------------------------------------------------------------|
B|-----------------------------------------------------------------------------------|
G|-----9--7--6------9----------9--7--6------9-------------9--7--6--------9-----7-----|
D|-7h9----------7h9--------7h9----------7h9-----------7h9------------7h9---7h9---7---|
A|---------------------7-----------------------7---7--------------7----------------7-|
E|-----------------------------------------------------------------------------------|

e|----------------------------|
B|----------------------------|
G|-----9--7--6--------9--7----| (riff varies slightly throughout song)
D|-7h9------------7h9---------|
A|-------------7--------------|
E|----------------------------|

if you see me comin'
e|----------------------|
B|----------------------|
G|----------------------| x4
D|----------------------|
A|-----------7-7--9-7---|
E|-5-5--9-9-------------|
Другие песни: