Black KeysHurt Like Mine Текст, аккорды

0 Голосов
----------------------------|
----------------------------|
----------------------------|
------7-7-7-7-5h6-----------|
-7--------------------------|
----------------------------|

not sure bout these 5's but i throw them in
----------------------------------------------|
---(5)-------(5)----------(5)-------(5)-------|
----------------------------------------------|
-------7-5h6------------------7-5h6-----------|
-7-------------------5--7-------------------5-|
-----------------5h7--------------------5h7---|
Другие песни: