Black KeysHave Mercy On Me Текст, аккорды

0 Голосов
Intro:
0:00 0:05 0:10
[1] [1]
e|--------------------------------------0h2-0-------------------------------|
B|---------------------------------------------0h2p0----------0h2-----------|
G|------------------------------0-2---------------------0h2--------0h2p0----|
D|--------------------------0h2------------------------------------------2--|
A|----------------------0h2-------------------------------------------------|
E|--12----3^V(3)^-----------------------------------------------------------|

0:13 0:19
[1/2]
e|--------------------------------------------------------------------------|
B|--------------------------------------------------------------------------|
G|----------0----0h2-0---0------------0-------------------------------------|
D|------0h2------------2----------0h2------2p0------------------------------|
A|--0h2-----------------------0h2--------------2p0--------------------------|
E|-------------------------------------------------3^-----------------------|

Verse:
0:19 0:25
e|--------------------------------------------------------------------------|
B|--------------------------------------------------------------------------|
G|-----------------0--------------------------------------------------------|
D|-------2-0---0-2---2---------------(0)------0-----------------------------|
A|-----------2--------------0---0-----0---0h2-------------------------------|
E|--0------------------3------3---3-----3-----------------------------------|

0:25 0:31
e|--------------------------------------------------------------------------|
B|--------------------------------------------------------------------------|
G|-----------------0--------------------------------------------------------|
D|-------2-0---0-2---2--------------------0---------------------------------|
A|-----------2--------------0---0-----0h2---0-------------------------------|
E|--0------------------3------3---3-----------3-----------------------------|

0:31 0:35 0:39
e|---------------------------------------------------------0-0h2-0----------|
B|------------------------------2-----------2----------2-----0h2-0-2p0------|
G|-------------0----------------2------2----2----------2---------------2p0--|
D|-----------0---2p0------------2----2------2-2-2------2--------------------|
A|-------0h2---------2p0---0----0---------------x-0------0------------------|
E|--0--------------------3----------------------3---------------------------|

0:40 0:45
e|--------------------------------------------------------------------------|
B|--------------------------------------------------------------------------|
G|-----------------0--------------------------------------------------------|
D|-------2-0---0-2---2------------------------------------------------------|
A|-----------2--------------0---0---0---0-----------------------------------|
E|--0------------------3------3---3---3---3---------------------------------|

0:46 0:52
e|--------------------------------------------------------------------------|
B|--------------------------------------------------------------------------|
G|-------------------2p0----------------------------------------------------|
D|-------2-0---0-2-0-----2---------------------0----------------------------|
A|-----------2-------------------0---0-----0h2---0--------------------------|
E|--0-----------------------3------3---3-----------3-0----------------------|

0:53 0:55 1:01
[1/4]
e|----------------------3-5----x-5---5-5---5-3-----3h5-3---3-5---3---3------|
B|--------0-------------2-4----x-4---4-4---4-4---2-2---2---2-2---2---2----2-|
G|--------0-------------2-2----x-2---2-2---2-2---2-----2---2-2---2---2----2-|
D|----0h2----2p0--------2-2----x-2---2-2---2-2---2-----2---2-2---2---2----2-|
A|0h2-------------2p0-2--------------------------0-----0---0-0---0---0----0-|
E|---------------------------------------------------------------------3^---|

1:01 1:05 1:10
e|--------------------------------------------------------------------------|
B|--------------------------------------------------------------------------|
G|--------------------------------0-----------------------------------------|
D|-0h2-0----------------2-0---0-2---2-----------------------0---------------|
A|-------2-0----------------2--------------0---0----0---0h2-----------------|
E|-----------3-0-3-0------------------3------3---3----3---------------------|

1:10 1:17
e|--------------------------------------------------------------------------|
B|--------------------------------------------------------------------------|
G|------------------0-------------------------------------------------------|
D|-------2-0---0------------------------------------------------------------|
A|-----------2-------------0---0-----0---0h2--------------------------------|
E|--0-----------------3------3---3-----3-----3-0----------------------------|
Другие песни: