Black KeysHave Love Will Travel solo Текст, аккорды

0 Голосов
Tuning: ( E A D G B e)

e----------------------------------|
B----------------------------------|
G----------------------------------|
D----------------------------------|
A-------3-/5--5-3--/7--7-3-5-3-----|
E--5--5------------------------5-3-|

e----------------------------------|
B----------------------------------|
G----------------------------------|
D----------------------------------|
A-------3-/5--5-3--/7--7-3-5-3-----|
E--5--5------------------------5-3-|

e----------------------------------|
B----------------------------------|
G----------------------------------|
D----------------------------------|
A-------3-/5--5-3--/7--7-3-5-3-----|
E--5--5------------------------5-3-|

Then:
e--------------------------------|
B--------------------------------|
G--------------------------------|
D--------------------------5--7--|
A-------3--/5--5-3--/7--7--------|
E--5--5--------------------------|

thats the main idea of the song
Другие песни: