Black KeysEverywhere I Go Текст

0 Голосов
Intro: didnt bother, but play something slow and bluesy 
around this scale:
e---------5---------8------------------|
B---------5---------8------------------|
G---------5-----7---8------------------|
D---------5-----7----------------------|
A---------5--6--7----------------------|
E---------7---------8------------------|

Main theme of the song:
riff 1
e---------------------------------------|
B---------------------------------------|
G----------7p5---------5--7p5-----------|
D--------------5--5h7---------5---------|
A--0-0-0-0-0--------------0-----0-------|
E---------------------------------------|

e---------------------------------------|
B---------------------------------------|
G--------7p5--------5--7----------------|
D------------5-5h7----------------------|
A--0-0--------------0--0----------------|
E---------------------------------------|

repeat riff 1
e---------------------------------------|
B---------------------------------------|
G-------7p5--------7--5-----------------|
D-----------5---------------------------|
A--0-0----------0--0--0-----------------|
E---------------------------------------|

repeat riff 1
e---------------------------------------|
B---------------------------------------|
G-------7p5---------5-7-8-7-5-----------|
D-----------5-5h7-------------5h7-------|
A--0-0--------------0-0-0-0-0-----------|
E---------------------------------------|

Please note that this is a simplified version,
Auerbach throws in a lot of fills and that i didnt bother with,
but for the most part they go something likе this:

fill/solo:
e---------8--8h10-10b-10-10-8-10-10-8---------------------|
B---8/10-------------------------------1085---------------|
G----------------------------------------------7--5-------|
D----------------------------------------------------7----|
A---------------------------------------------------------|
E---------------------------------------------------------|
Другие песни: