Black KeysBrooklyn Bound Текст

0 Голосов
Drop D tuning.

E :--------------------------------------------------------------------|
B :--------------------------------------------------------------------|
G :-------------------------------------------------/-/-7--------------|
D :------------------------b7--5-3--------5-----3----------------b7--5-|
A :--------------------------------5-3---------------------------------|
D :------------------------------------5-----3----0--------------------|

E :---------------------------------------------|
B :---------------------------------------------|
G :---------------------------------------------|
D :3--------5-----3------//5-^-----5-----3------|
A :--5-3----------------------------------------|
D :------5-----3----0----------5-----3----0-----|
Другие песни: