Без БилетаАнтициклон Текст

0 Голосов
Intro:
1|--------------------------------------------------------------------|
2|--------------------------------------------------------------------|
3|------------------10--8------10-8-------7---------7--5--------------|
4|---------7---8-------------8--------8-------8-------------7---------|
5|---10-------------------------------------------10------------8-6-5-|
6|--------------------------------------------------------------------|

1|------------------------------------------------------------|
2|------------------------------------------------------------|
3|-------------10-9-8-------7---------7--5---7-10-7-----------|
4|-------7-8--------------------8------------------------10-8-|
5|---10----------------------------10-------------------------|
6|------------------------------------------------------------|

Gm Cm7
Я знаю – это циклон
Eb (Bb)
Облачно, без прояснений
Dm7 F
Девушки не в настроении

Gm Cm7
Пропали память и сон
Eb (Bb)
Чуть от грибов не умер
Dm7 F
Чуть не попал под бумер

Gm Cm Eb (Bb)
Пятый день этот дождь
Dm7 F
И мокрые люди
Gm Cm Eb (Bb)
Ты ко мне не придёшь
F
И лета не будет

Gm Eb Bb
У-у а-а,
F Gm Eb Bb F
без солнца невесело
Gm Eb Bb
У-у а-а,
F Gm Eb Bb F
уедем и все дела
Gm Eb Bb
У-у а-а,
F Gm Eb Bb F
без солнца невесело
Gm Eb Bb
У-у а-а,
F Gm Eb Bb F
уедем и все дела

Gm Cm7
А вот антициклон
Eb (Bb)
Ехал в такси бесплатно
Dm7 F
Даже туда и обратно
Gm Cm7
В лото выиграл миллион
Eb (Bb)
Наши забили три гола
Dm7 F
В гости позвали полгорода

Gm Cm Eb (Bb)
Ты принесла чемодан
Dm7 F
И мне улыбнулась
Gm Cm Eb (Bb)
Высохла в лужах вода
F
И лето вернулось

Gm Eb Bb
У-у а-а,
F Gm Eb Bb F
без солнца невесело
Gm Eb Bb
У-у а-а,
F Gm Eb Bb F
уедем и все дела
Gm Eb Bb
У-у а-а,
F Gm Eb Bb F
без солнца невесело
Gm Eb Bb
У-у а-а,
F Gm Eb Bb F
уедем и все дела
Другие песни: