BeatlesSomething Текст

0 Голосов
Intro and signature riff:
F Eb G C
|--------------------------------
|--10--b(13)12--10--11--12--13---
|--------------------------------
|--------------------------------
|--------------------------------
|--------------------------------

C Cmaj7
Something in the way she moves
C7 F
Attracts me like no other lover
D G
Something in the way she woos me
Am G#+
I don't want to leave her now
C/G D F Eb G C
You know I believe in how

C Cmaj7
Somewhere in her smile she knows
C7 F
That I don't need no other lover
D G
Something in her style that shows me
Am G#+
I don't want to leave her now
C/G D F Eb G A
You know I believe in how

A C#m F#m
You're asking me will my love grow
A/E D G A G# G F# F E
I don't know I don't know
A C#m F#m
You stick around and it may show
A/E D G C
I don't know I don't know

Guitar solo:
C Cmaj7 C7
|------------------------------------------------------------------
|-------8------------------------------------8--10--8--11/13--13---
|--7/9-----9--7/9--12b(14)--b(14)12--9--7/9------------------------
|------------------------------------------------------------------
|------------------------------------------------------------------
|------------------------------------------------------------------

F
|------------------------------------------------------------------
|--b(15)13--b(17)15--13-----------13--13---------------------------
|------------------------14--/14----------14-------12--12----------
|---------------------------------------------/14----------14------
|--------------------------------------------------------------12--
|------------------------------------------------------------------

D G
|------------------------------------------------------------------
|------------------------------------------------------------------
|-------------------11--11--b(16)14--b(16)14--b(16)14--12----------
|--------------/12-------------------------------------------------
|--12--14--12------------------------------------------------------
|------------------------------------------------------------------

Am G#+
|----------------------------------------------------------------------
|------14--13--12/16--15--14-------------------------------------------
|--12-------------------------b(9)7--b(9)7--5--b(9)7--b(9)7--b(9)7--5--
|----------------------------------------------------------------------
|----------------------------------------------------------------------
|----------------------------------------------------------------------

C/G D F Eb G C
|---------------------------10/12--10--8--10--8------------------------------
|------------------------8-----------------------10--b(13)12--10--11--12--13-
|--b(9)7--b(9)7--5--7/9------------------------------------------------------
|----------------------------------------------------------------------------
|----------------------------------------------------------------------------
|----------------------------------------------------------------------------

C Cmaj7
Something in the way she knows
C7 F
And all I have to do is think of her
D G
Something in the things she shows me
Am G#+
I don't want to leave her now
C/G D F Eb G C
You know I believe in how

Ending:
F Eb G A F Eb G C
|-----------------------------------16--15--14-------------------------------
|--10--b(13)12--10--11--12--14--14--------------10--b(13)12--10--11--12--14--
|----------------------------------------------------------------------------
|----------------------------------------------------------------------------
|----------------------------------------------------------------------------
|----------------------------------------------------------------------------

=============================
Intro:
(A) (A) (D) (C) (E)
|--------------------|--------------------|----2--5--2--3---4--|
|--------------------|--------------------|----3--------5---5--|
|--------------------|--------------------|----2--------5---4--|
|--------------------|--------------------|--0----------5---6--|
|--------------------|--------------------|-------------3---7--|
|--------------------|--------------------|--------------------|

Verse:
(A) (Amaj7) (A7) (D)
||--------------------|--------------------|--------------------|--------------------|
||--------------------|--------------------|--------------------|--------------------|
||--------------------|--------------------|--------------------|--------------------|
||--------------------|--------------------|--------------------|-0----------0-------|
||--------------------|--------------------|--------------------|----------------4---|
||--------------------|--------------------|--------------------|--------------------|

(B) (B7) (E) (F#m) (F#maj7)
(F#m7) (B7) (D) (C) (E)
|--------------------|--0------0-------0--|--------------------|--------------------|---2--5-2--3--4--||
|--------------------|--0------0-------0--|--------------------|--------------------|---3-------5--5--||
|--------------------|--1------2-------4--|--------------------|--------------------|---2-------5--4--||
|--------------------|--2--2/4-4--4/6--6--|--------------------|--------------------|-0---------5--6--||
|--2-----------------|--2------0-------0--|--------------------|--------------------|-----------3--7--||
|--------------------|--0------0-------0--|--------------------|--------------------|-----------------||

(F#) (F#maj7) (F#13) (F#) (B) (E) (F#)
|--------------------|--------------------|--------------------|--------------------|
|--------------------|--------------------|--------------------|--------------------|
|--------------------|--------------------|--------------------|--------------------|
|--------------------|--------------------|--------------------|-----3--2--1--0-----|
|--------------------|--------------------|--------------------|-----------------4--|
|--------------------|--------------------|--------------------|--------------------|

(F#) (F#maj7) (F#13) (F#) (B) (E) (A)
|--------------------|--------------------|--------------------|--------------------|
|--------------------|--------------------|--------------------|--------------------|
|--------------------|--------------------|--------------------|-----1--0-----------|
|--------------------|--------------------|--------------------|-----------4--3--2--|
|--------------------|--------------------|--------------------|--------------------|
|--------------------|--------------------|--------------------|--------------------|

Cclosing verse:
(A) (Amaj7) (A7) (D)
|--5-----------------|---4----------------|--3-----------------|--------0--2--3--2--|
|--2-----------------|---2----------------|--2-----------------|--------3--3--3--3--|
|--2-----------------|---2----------------|--2-----------------|--------2--2--2--2--|
|--2-----------------|---2----------------|--2-----------------|--------0--0--0--0--|
|--0-----------------|---0----------------|--0-----------------|--------------------|
|--------------------|--------------------|--------------------|--------------------|

(B7) (E) (F#m) (F#maj7)
(F#m7) (B7)
|--2-------4-------2--|--0-------0-------0--|--------------------|--------------------|
|--0------------------|--0-------0-------0--|--------------------|--------------------|
|--2--2/4-----42------|--1-------2-------4--|--------------------|--------------------|
|--1------------------|--2--2/4--4--4/6--6--|--------------------|--------------------|
|--2------------------|--2-------0-------0--|--------------------|--------------------|
|---------------------|--0-------0-------0--|--------------------|--------------------|

(D) (C) (E) (A)
|-----2-5-2---3---4---9---|
|-----3-------5---5---10--|
|-----2-------5---4---9---|
|--0----------5---6---11--|
|-------------3---7---12--|
|-------------------------|
Другие песни: