Beach BoysShut Down Текст

0 Голосов
Artist:The Beach Boys
Song Title:Shut Down
Released:1960's
Tabber:Jordan Waters
Tuning:E A D G

SHUT DOWN

Intro/Chorus
A C D G
[--|-------------------------------------|--------------------------]
[--|-------------------------------------|-------0--2--0------------]
[--|--------------------3-----5--------5-|----2-----------3--2--0---]
[--|--5--------5-------------------------|-3------------------------]


Verse
G
[----|---------------------------------|
[----|---------------------------------| x2
[----|---------------------------------|
[----|-3--------3--------3----3----3---|

C
[--------------------------------------]
[--------------------------------------] x2
[-3--------3--------3----3---3---------]
[--------------------------------------]

Bridge (whole notes)

C G C G
[-------------------------------------------------------------------]
[-------------------------------------------------------------------]
[-3--------3--------------------------3--------3--------------------]
[-------------------3--------3--------------------------3-----------]


D
[------------|
[------------|
[---5----5---|
[------------|
(half notes)

Yet another great BEACH BOYS tune this a very simple bass line but
sounds great when you play along.

Heres The order:-->

Intro

Verse

Chorus

Verse

CHorus

Bridge

Verse

Chorus

Repeat Intro to fade


Have fun and enjoy many more Beach Boys tabs to come

Corrections or Comments--> MAil; J_lumpy15@hotmail.com
Другие песни: