Barenaked LadiesThe Big Bang Theory Theme Текст

0 Голосов
Intro:
G D Em
------------------------------3--2--0--------|
---------1-----------3--------0--3--0--------|
------------0-----2-----2-----0--2--0--------|
-----2---------0--------------0--0--2--------| x2
--3---------------------------2--0--2--------|
------------------------------3-----0--------|

Chorus:
C D G D Em
--0-------2-------3-------2-------0----------|
--1-------3-------0-------3-------0----------|
--0-(x4)--2-(x4)--0-(x2)--2-(x2)--0----------|
--2-------0-------0-------0-------2-(x2)-----| x3
--3-------0-------2-------0-------2----------|
------------------3---------------0----------|

Ending:
C D G
--0-------2-------3---------|
--1-------3-------0---------|
--0-(x4)--2-(x4)--0---------|
--2-------0-------0---------|
--3-------0-------2---------|
------------------3---------|
Другие песни: